Oops, an error
Loading. Please wait.

Magic Bass Tab

969 views 1 this week
no commentswrite comment
1 2 3 4 5
2 more votes to show rating
add to favorites
launch autoscroll
font size
0
reset
guitar tuner
Autoscroll
slow
fast
+/-
esc
set tempo
stop
Help us to improve Ultimate-Guitar.com Take our survey!
×
Author
-----------------------------------------------------------------------------
                         MAGIC - Olivia Newton-John
-----------------------------------------------------------------------------

Tabbed by: Matt Broback
E-mail: 37hambone@gmail.com

Tuning: E A D G

INTRO
|--------|-------------|--------|-------------|
|--------|-3/4---------|--------|-3/4---------|
|5--35--3|5---5--------|5--35--3|5---5--------|
|--------|-------47/8\4|--------|-------47/8\4|

VERSE
|--------|----------|--------|--------|--------|--------|--------|------2-|
|--------|-3/4------|0--00023|4-------|--------|--------|2--222--|-----2--|
|5--35--3|5---55--30|--------|---0003-|--------|0--0003-|------23|0--00---|
|--------|----------|--------|--------|0--00030|--------|--------|--------|

|--------|----------|--------|--------|--------|--------|--------|------2-|
|--------|-3/4------|0--00023|4-------|--------|--------|2--222--|-----2--|
|5--35--3|5---55---0|--------|---0003-|--------|0--00030|------3-|0--00---|
|--------|----------|--------|--------|0--0003-|--------|--------|--------|

BRIDGE 1          ssssss 
|--------|--------2/4---|
|--------|-3/4-------22-|
|5--35--3|5---55-------4|
|--------|--------------|

CHORUS 1
|--------|--------|--------|--------|--------|--------|
|--------|--------|--------|--------|--------|--------|
|55555555|1111111-|11111113|55555--0|55555555|1111111-|
|--------|-------1|--------|--------|--------|-------1|

|----------|---17/1917--|--------|--------|--------|--------|
|------5---|---17/1917--|--------|--------|------0-|------2-|
|11-3---5\-|0-----------|5--555-5|-----01-|1--111--|0--000--|
|----------|------------|--------|3--33--3|--------|--------|

|--------|---------|--------|--------|-----------|--------|---------|
|--------|------9\-|--------|--------|-3/4-------|--------|---------|
|5--55-56|7--77----|0-------|5--35--3|5---55--5--|--------|0-----12\|
|-----5--|---------|--------|--------|---------5\|0-----23|---------|

BRIDGE 2
|--------|-------------|--------|-------------|
|--------|-3/4---------|--------|-3/4---------|
|5--35--3|5---55-------|5--35--3|5---55-------|
|--------|-------47/8\4|--------|-------47/8\4|

VERSE 2
|--------|----------|--------|--------|--------|--------|--------|------2-|
|--------|-3/4------|---00023|4-------|--------|--------|--------|-----2--|
|5--35--3|5---55-50-|5-------|---0003-|--------|0--0003-|--------|0--00---|
|--------|----------|--------|--------|0--00030|--------|0--00034|--------|

|--------|----------|--------|--------|--------|--------|--------|------2-|
|--------|-3/4------|0--00023|4-------|--------|--------|--------|-----2--|
|5--35--3|5---55--03|--------|---0003-|--------|0--0003-|------3-|0--00---|
|--------|----------|--------|--------|0--00030|--------|0--000--|--------|

BRIDGE 3
|--------|----------|
|--------|-3/4------|
|5--35--3|5---555500|
|--------|----------|

CHORUS 2
|--------|--------|--------|--------|--------|--------|
|--------|--------|--------|--------|--------|--------|
|55555555|1111111-|11111113|55555553|55555555|1111111-|
|--------|-------1|--------|--------|--------|-------1|

|----------|---17/1917--|--------|--------|--------|--------|
|------5---|---17/1917--|--------|--------|------0-|------2-|
|11--3--5\-|0-----------|5--555-5|-----01-|1--111--|0--000--|
|----------|------------|--------|3--33--3|--------|--------|

|--------|-------12----|--------|--------|-----------|--------|--------|
|--------|---8/141214\-|--------|--------|-3/4-------|--------|--------|
|5--55-56|7------------|0-------|5--35--3|5---55--5--|--------|0-----70|
|-----5--|---6/--------|--------|--------|---------5\|0-----34|--------|

SOLO
|--------|-------------|--------|-------------|
|--------|-3/4---------|--------|-3/4---------|
|5--35--3|5---5--------|5--35--3|5---55-------|
|--------|-------47/8\4|--------|-------47/8\4|

                                      ssss
|--------|-------------|--------|-/77-77777-|
|--------|-3/4---------|--------|-----------|
|5--35--3|5---5--------|5--35--3|5---5-----5|
|--------|-------47/8\4|--------|-----------|

OUTRO
|--------|--------|--------|--------|--------|--------|
|--------|--------|--------|--------|--------|--------|
|55555555|1111111-|11111113|55555553|55555550|1111111-|
|--------|-------1|--------|--------|--------|-------1|

|----------|---17/1917--|--------|--------|--------|-------2|
|------5---|---17/1917--|--------|--------|------0-|------2-|
|11--3--5\-|0-----------|5--555-5|-----01-|1--111-1|0--000--|
|----------|------------|--------|3--33--3|--------|--------|

|--------|-------12----|--------|--------|----------|--------|--------|
|--------|---8/141214\-|--------|--------|-3/4------|--------|------7\|
|5--55-56|7------------|0-------|5--35--3|5---5555--|--------|0-------|
|-----5--|---6/--------|--------|--------|--------5\|0------3|--------|

|--------|-------------|--------|--------|--------|--------|
|--------|-3/4---------|--------|--------|--------|--------|
|5--35--3|5---55-------|5--35--3|5~~~~~~~|~~~~~~~~|~~~~~~~~|
|--------|-------47/8\4|--------|--------|--------|--------|
Suggest correction
Give kudos to tab author, rate the tab!
1 2 3 4 5
comments
print report bad tab
guest
You may want to rate the tab now too:
select rating
Wanna post a correction for this tab? Suggest correction