Oops, an error
Loading. Please wait.

4Am Tab

175 views 27 this week
1 commentread comment
1 2 3 4 5
1 last vote to show rating
add to favorites
launch autoscroll
font size
0
reset
how to read this tab
guitar tuner
Autoscroll
slow
fast
+/-
esc
set tempo
stop
Help us to improve Ultimate-Guitar.com Take our survey!
×
Author
Difficulty
Capo
novice
6th fret
About this tab version
So as far as I know this is the first version of this tab released, so by no means do i think this is 100%. Also this is the first thing i've ever tabbed out so take it easy on me. Any suggestions and corrections are always welcome. Was this info helpful? Yes No
So this is definitely not even close to perfect. I just want to get it started so other people can see it and 
make adjustments and help until this is perfected. Also he slaps his guitar a lot, so just make sure you find 
his pace and slap in rhythm.

[Main Riff]

e|---------------------------------0-------8-7-5-3-----8-7---0---------------|
B|-----1--------3-1-----0-1--------3-1-----5-5-3-0-----5-5--/3-2-------------|
G|-----2--------2-2-----2-2--------2-2---------------------------------------|
D|-----------------------------------------0-0-0-0-----0-0---0---------------|
A|--0--------0------------------0--------------------------------------------|
E|---------------------------------------------------------------------------|

Just repeat this until the chorus.

[Chorus]

e|----------0-Hold-|
B|--------1--------|
G|------2----------|
D|----2------------| This just repeats. First time through the chorus he does it twice.
A|--0--------------| Then when it gets to the build up around 1:30 you do it like 8 times or something and 
E|-----------------| then it goes back to the other riff.

So yeah here it is. Pretty sloppy. Please correct me and update it if you guys know it better.



************************************

| /  Slide up

************************************
Suggest correction
Give kudos to tab author, rate the tab!
1 2 3 4 5
comments
print report bad tab
1 comment total.
0 reply
CadeTolliver 41 5 days ago

The last part of the main riff he's actually sliding from 5/3 then hitting the 1 instead of a 2 on that last note on the B string

guest
You may want to rate the tab now too:
select rating
Wanna post a correction for this tab? Suggest correction