Oops, an error
Loading. Please wait.

Now You Know Tab

version 2
version 2

Whole song

7 views 1 this week
no commentswrite comment
1 2 3 4 5
3 more votes to show rating
add to favorites
launch autoscroll
font size
0
reset
how to read this tab
guitar tuner
Autoscroll
slow
fast
+/-
esc
set tempo
stop
Help us to improve Ultimate-Guitar.com Take our survey!
×
Author
Difficulty
[Verse]

e|--------------------------------------------|
B|---6---6/5----5-5\10---10/1---1\3---1-3---5-|
G|--------------------------------------------|
D|--------------------------------------------|    x3
A|-5---5-5/3--3---3\8--8----0-0---1---0-1---3-|
E|--------------------------------------------|

e|----------------------------------------|
B|---6---6/5----5-5\10---10/1---1\3---1-5-|
G|----------------------------------------|
D|----------------------------------------|    x1
A|-5---5-5/3--3---3\8--8----0-0---1---0-3-|
E|----------------------------------------|


[Chorus]

e|--------------------------------------------|
B|---6---6/5----5-5\10---10/1---1\3---1-3---5-|
G|--------------------------------------------|
D|--------------------------------------------|    x2
A|-5---5-5/3--3---3\8--8----0-0---1---0-1---3-|
E|--------------------------------------------|


[Verse]

e|-----------------------------------------------------------------------------|
B|---6---6/5----5-5\10---10/1---1\3---1-3---5---6---6/5----5-5\10---10/1---1\3-|
G|-----------------------------------------------------------------------------|
D|-----------------------------------------------------------------------------|  x2  
A|-5---5-5/3--3---3\8--8----0-0---1---0-1---3-5---5-5/3--3---3\8--8----0-0---1-|
E|-----------------------------------------------------------------------------|



************************************

| /   Slide up
| \   Slide down

************************************
Suggest correction
Give kudos to tab author, rate the tab!
1 2 3 4 5
comments
print report bad tab
guest
You may want to rate the tab now too:
select rating
Wanna post a correction for this tab? Suggest correction