Oops, an error
Loading. Please wait.

Heart Skips A Beat Bass

3,755 views 6 this week
no commentswrite comment
1 2 3 4 5
2 more votes to show rating
add to favorites
launch autoscroll
font size
0
reset
guitar tuner
×
Best way to learn
"Heart Skips A Beat"
Autoscroll
slow
fast
+/-
esc
set tempo
stop
Difficulty
novice
First time i tapped a track.
Hope i got the right notes.

© by nemexx

How to play:
1. Intro
2. Text
3. Chours
4. Text
5. Chours
6. Solo Rap
7. End Chours


Intro

G|---------------------------------|
D|---------------------------------|
A|---------------------------------|
E|-2-----0------2-0---------00002--|


Text

G|---------------------------------|
D|---------------------------------|
A|---------------------------------|
E|--------------2-0---------00002--|


G|---------------------------------|
D|---------------------------------|
A|---------------------------------|
E|--------------2-0---------0000---|


G|----------------------------------|
D|----------------------------------|
A|0--00----0--00-----0--00----0--00-|
E|-----------------0----------------|


G|---------------------------------|
D|---------------------------------|
A|-----0---------------------------|
E|0000------------------------2-0--|


Chours

G|----------------------------------|
D|----------------------------------|
A|-------------------------0--------|>>>>>>
E|2>>>>>>>>>>-0>>>>>>>>>>-0---------|



G|---------------------------------|
D|---------------------------------|
A|--------------------0>>>---------|
E|0-0-0000-2>>>-0>>>0-----0-0-0000-|



G|----------------------------------|
D|----------------------------------|
A|00000000--------------------0000--|
E|--------00000023333333300000----0-|


Solo Rap

G|---------------------------------|
D|---------------------------------|
A|---------------------------------|
E|-2-----2-----2-----2-----2-----2-|

End Chours

G|----------------------------------|
D|----------------------------------|
A|-------------------------0--------|>>>>>>
E|2>>>>>>>>>>-0>>>>>>>>>>-0---------|



G|---------------------------------|
D|---------------------------------|
A|--------------------0>>>---------|
E|0-0-0000-2>>>-0>>>0-----0-0-0000-|



G|----------------------------------|
D|----------------------------------|
A|0>>>>>>>--------------------0000--|
E|--------0>>>>>23>>>>>>>0>>>>----0-|


G|---------------------------------|
D|---------------------------------|
A|---------------------------------|
E|----------0---------0--------0---|
Suggest correction
Give kudos to tab author, rate the tab!
1 2 3 4 5
comments
print report bad tab
guest
You may want to rate the tab now too:
select rating
Wanna post a correction for this tab? Suggest correction