Oops, an error
Loading. Please wait.

Please Dont Let Me Go Tab

6,872 views 1 this week
no commentswrite comment
1 2 3 4 5
please rate
add to favorites
launch autoscroll
font size
0
reset
how to read this tab
guitar tuner
Autoscroll
slow
fast
+/-
esc
set tempo
stop
Help us to improve Ultimate-Guitar.com Take our survey!
×
Author
Difficulty
novice
Olly Murs - Please Don't Let Me Go

The whole thing is sort of reggae (lots of upstrokes etc.)


Verse Chords:

  Gm                 Cm                   D#                  F
-3-x-3-x-3-x-3----8--x-8--x-8--x-8---11-x-11-x-11-x-11----8--x-8--x-8--x-8--|
-3-x-3-x-3-x-3----8--x-8--x-8--x-8---11-x-11-x-11-x-11----10-x-10-x-10-x-10-|
-3-x-3-x-3-x-5----8--x-8--x-8--x-8---12-x-12-x-12-x-12----10-x-10-x-10-x-10-|
-5-x-5-x-5-x-5----10-x-10-x-10-x-10--13-x-13-x-13-x-13----10-x-10-x-10-x-10-|
--------------------------------------------------------8-------------------|
----------------------------------------------------------------------------|

      Where do I begin?       Should I tell you     How bad I need you now

You're underneath my skin
But I'm confused
My head is spinning all around


Gm           Cm
I waited so long
            D#
I need to know, darling
F
What is on your mind

Chorus:
 A#         F            Cm          D#
-6-6-6-6----1-1-1-1---8--8--8--8----11-11-11-11--|
-6-6-6-6----1-1-1-1---8--8--8--8----11-11-11-11--|
-7-7-7-7----2-2-2-2---8--8--8--8----12-12-12-12--|
-8-8-8-8----3-3-3-3---10-10-10-10---13-13-13-13--|
-------------------------------------------------|
-------------------------------------------------|
A#                     F
Normally I try to run
                              Cm
And I might even want to hide
                                  D#
Cause I never knew what I wanted
                             A#
Til I looked into your eyes

Bridge:
 A#    F   Cm     A#
-6-----1----8------6--|
-6-----1----8------6--|
-7-----2----8------7--|
-8-----3----10-----8--|
-8-----3----10-----8--|
-6-----1----8------6--|

 A#   F  Cm   D#
-6----1---8---11----|
-6----1---8---11----|
-7----2---8---12----|
-8----3---10--13----|
--------------------|
--------------------|

A#
Pardon the inquisition
F
Under these conditions
Cm
I need a definition
A#
Is it love that we're sharing Show me that you're caring
A#
You see my fascination
F
Tell me I'm not mistaken
Cm                        D#
Give me the information I need

1, 2, 3

CHORUS!

END

Hope you enjoy
Didn't take long so may not be 100%
Pretty cool tune though
Suggest correction
Give kudos to tab author, rate the tab!
1 2 3 4 5
comments
print report bad tab
guest
You may want to rate the tab now too:
select rating
Wanna post a correction for this tab? Suggest correction