Oops, an error
Loading. Please wait.

Seasons tab

1,181 views 1 this week
no commentswrite comment
1 2 3 4 5
x 6
add to favorites
×
Save as Personal and add changes to this tab that will be seen only by you. Learn more ›
×
You can save this tab as Personal to edit and correct it or add notes. All changes will be seen only by you. Learn more »
launch autoscroll
font size
0
reset
how to read this tab
guitar tuner
edit
Autoscroll
slow
fast
+/-
esc
set tempo
stop
-------------------------------------------------------------------------------
                             SEASONS - Olly Murs
-------------------------------------------------------------------------------

Tabbed by: ERoberts1204

Standard tuning
Capo on 3RD FRET

For this, there's pretty much just a continued riff throughout the whole song,
and for the chords, go to the chords given by the other guy who did the chords 
for this, they seem perfect :) I hope this is right, please correct it if it 
isn't, merci mis amigos (yes I'm trilingual, capiche?) 
 

     Em           Cadd9         G          Asus2         Em            Cadd9       G             D
e|---------------------------------------------------|-----------------------------------------------------|
B|---------0------------3-----------------------0----|---------0------------3------------------------------|
G|-------0------------0-----------0-2---------2------|-------0------------0-----------0-2---------2----2-0-| 
D|-----2------------2-----------0-----------2--------|-----2------------2-----------0------------0---------|
A|---------------3-----------------------0-----------|---------------3-------------------------------------|
E|--0------------------------3-----------------------|--0------------------------3-------------------------|

So yeh repeat that :) the chord progression I've put above the tab is also just repeated

            
            
Suggest correction
Creating personal tab
Creating personal tab
You can edit any tab online and save it as your Personal.

You can edit, replace or remove any tab part or add personal notes – all changes will be seen only by you.

Personal tabs can be accessed anytime from any device, even offline.
Learn more »
comments
print report bad tab
guest
You may want to rate the tab now too:
select rating
Wanna post a correction for this tab? Suggest correction