Oops, an error
Loading. Please wait.

Fly On The Wings Of Love bass

235 views 3 this week
no commentswrite comment
1 2 3 4 5
3 more votes to show rating
add to favorites
×
Save as Personal and add changes to this tab that will be seen only by you. Learn more ›
×
You can save this tab as Personal to edit and correct it or add notes. All changes will be seen only by you. Learn more »
launch autoscroll
font size
0
reset
guitar tuner
edit
Autoscroll
slow
fast
+/-
esc
set tempo
stop
Author
Difficulty
Fly On The Wings Of Love
Winner of the 2000 Eurovision Song Contest by The Olsen Brothers.
Tab by bass50611. What a brilliant song, a worthy winner of Euro
Vision. Think it’s more or less as original, Please note the Tuning
Comments at basss254@btinternet.com 

TUNING: G D A B

Intro:      (Played quietly under pipe flutes)
G|-------| |-7-----------------7-
D|-DRUM--| |-----9----5----7-----
A|-START-| |---------------------
B|-------| |---------------------

Verse Part 1:
            In the summer nights, when the moon shines bright..
G|-------------------------------------------------------------
D|-2-4-2-0-0-------------------------------------2-4-2-0-5-----
A|--------2---------------------------------------------2------
B|-------------------------------------------------------------

Feeling love forever.............And the heat is on when the daylight..
G|---------------------------------------------------------------------
D|-------------------2-4-2-0-0-----------------------------------------
A|--------------------------2------------------------------------------
B|---------------------------------------------------------------------

Is gone......Still happy together.....
G|---------------------------------------
D|-2-4-2-0-5---------------------2-4-2-0-
A|--------2------------------------------
B|---------------------------------------

Pre-Chorus:
  There Is Just One more thing I would like to add...
G|---------------------------------------------------
D|---------------------------------------------------
A|---------------------------------------------------
B|-0--------------------------------------------8----

  She is the greatest love I’ve ever had..(Break)
G|-----------------------------------------------
D|-----------------------------------------------
A|-----------------------------------------------
B|-5----------------------------------10---------

Chorus :
Fly on the Wings..
G|-----------------------------------------------------------------------
D|-----------------------------------------------------------------------
A|-----------------------------------------------------------------------
B|---------3-3-3-3---0-0-0-0---8-8-8-8---10-10-10-10---3-3-3-3---0-0-0-0-

G|-------------------------------------------------------------------------
D|-------------------------------------------------------------------------
A|---------------------------------------------------------0-0-0-0-0-0-0-0-
B|-8-8-8-8--10-10-10-10--0-0-0-0--8-8-8-8--5-5-5-5-5-5-5-5-----------------

Verse 2:
            And as time goes by.. there is a lot to try..........And I’m 
G|-----------------------------------------------------------------------
D|-2-4-2-0-0-------------------------------------------2-4-2-0-5---------
A|--------2---------------------------------------------------2----------
B|-----------------------------------------------------------------------

Lucky.            In The softest sand.. Smiling hand in hand
G|-------------------------------------------------------------------
D|-----2-4-2-0-0-------------------------------------------2-4-2-0-5-
A|------------2---------------------------------------------------2--
B|-------------------------------------------------------------------

Love is all around me..
G|------------------------------
D|----------------------2-4-2-0-
A|------------------------------
B|------------------------------

Repeat Pre-Chorus:

Chorus 2: 
Fly on the Wings..
G|-----------------------------------------------------------------------
D|-----------------------------------------------------------------------
A|-----------------------------------------------------------------------
B|---------3-3-3-3---0-0-0-0---8-8-8-8---10-10-10-10---3-3-3-3---0-0-0-0-

G|-------------------------------------------------------------------------
D|-------------------------------------------------------------------------
A|---------------------------------------------------------0-0-0-0-0-0-0-0-
B|-8-8-8-8--10-10-10-10--0-0-0-0--8-8-8-8--5-5-5-5-5-5-5-5-----------------

G|-------------------------------------------------------------------------
D|-------------------------------------------------------------------------
A|-0-0-0-0-0-0-0-0---------------------------------------------------------
B|----------------3-3-3-3--0-0-0-0--8-8-8-8--10-10-10-10--3-3-3-3--0-0-0-0-

                                                                    (Break)
G|----------------------------------------------------------------------
D|----------------------------------------------------------------------
A|---------0-0-0-0-----------------------------------0-0-0-0-0-0-0-0--0-
B|-8-8-8-8---------0-0-0-0--8-8-8-8--5-5-5-5-5-5-5-5--------------------

Chorus 1 Repeated Without Bass:

Outro and Key Change:
G|-------------------------------------------------------------------------
D|-------------------------------------------------------------------------
A|---------4-4-4-4---0-0-0-0---2-2-2-2---------4-4-4-4---0-0-0-0---2-2-2-2-
B|-5-5-5-5-----------------------------5-5-5-5-----------------------------

G|--------------------------------------------------------------------
D|--------------------------------------------------------------------
A|-4-4-4-4---0-0-0-0-----------------2-2-2-2-2-2-2-2--2-2-2-2-2-2-2-2-
B|-------------------7-7-7-7-7-7-7-7----------------------------------

G|---------------------------------------------------------
D|---------------------------------------------------------
A|---------4-4-4-4---0-0-0-0---2-2-2-2---------------------
B|-5-5-5-5-----------------------------5-5-5-5-5-5-5-5---5-

            
            
Suggest correction
Creating personal tab
Creating personal tab
You can edit any tab online and save it as your Personal.

You can edit, replace or remove any tab part or add personal notes – all changes will be seen only by you.

Personal tabs can be accessed anytime from any device, even offline.
Learn more »
Give kudos to tab author, rate the tab!
1 2 3 4 5
comments
print report bad tab
guest
You may want to rate the tab now too:
select rating
Wanna post a correction for this tab? Suggest correction