Oops, an error
Loading. Please wait.

We Cant Get Away Tab

13 views 1 this week
no commentswrite comment
1 2 3 4 5
3 more votes to show rating
add to favorites
launch autoscroll
font size
0
reset
how to read this tab
guitar tuner
Autoscroll
slow
fast
+/-
esc
set tempo
stop
Help us to improve Ultimate-Guitar.com Take our survey!
×
[0:19-0:55]

e|----------------------------------------|----------------|
B|----------------------------------------|---------8------| 
G|----8-10-8-------8-10-8-------8-10-8----|----8-10---10-8-|(at 2x it finishes at line)
D|-10--------10-10--------10-10--------10-|-10-------------|
A|----------------------------------------|----------------|
E|----------------------------------------|----------------|(x4)


[1:31-1:50]

e|-------------------------------------------------------|
B|------------------------------------------------8------|
G|----8-10-8-------8-10-8-------8-10-8-------8-10---10-8-|
D|-10--------10-10--------10-10--------10-10-------------|
A|-------------------------------------------------------|
E|-------------------------------------------------------|(x2)


[2:26-2:44]

e|-------------------------------------------------------|
B|------------------------------------------------8------|
G|----8-10-8-------8-10-8-------8-10-8-------8-10---10-8-| 
D|-10--------10-10--------10-10--------10-10-------------|
A|-------------------------------------------------------|
E|-------------------------------------------------------|(x2)


[3:21-3:39]

e|-------------------------------------------------------|
B|------------------------------------------------8------|
G|----8-10-8-------8-10-8-------8-10-8-------8-10---10-8-| 
D|-10--------10-10--------10-10--------10-10-------------|
A|-------------------------------------------------------|
E|-------------------------------------------------------|(x2)


[3:39-3:57]

e|------------------------------------------------|
B|------------------------------------------------|
G|------------------------------------------------| 
D|------------------------------------------------|
A|------------------------------------------------|
E|-8-8-11-8-8-8-11-8-8-11--8-8-11-8-8-8-11-8-8-11-|


[4:53-5:11]

e|------------------------------------------------|
B|------------------------------------------------|
G|------------------------------------------------| 
D|------------------------------------------------|
A|------------------------------------------------|
E|-8-8-11-8-8-8-11-8-8-11--8-8-11-8-8-8-11-8-8-11-|
Suggest correction
Give kudos to tab author, rate the tab!
1 2 3 4 5
comments
print report bad tab
guest
You may want to rate the tab now too:
select rating
Wanna post a correction for this tab? Suggest correction