Oops, an error
Loading. Please wait.

Theres Nothing Like This bass

by Omar
7,005 views 6 this week
no commentswrite comment
1 2 3 4 5
x 3
add to favorites
×
Save as Personal and add changes to this tab that will be seen only by you. Learn more ›
×
You can save this tab as Personal to edit and correct it or add notes. All changes will be seen only by you. Learn more »
launch autoscroll
font size
0
reset
guitar tuner
edit
Autoscroll
slow
fast
+/-
esc
set tempo
stop
Difficulty
intermediate
BasS Tablature Template @ tTabs: Guitar, Bass, and Drum tabs
Artist: Omar 
Song: There's nothing like this
Tabbed by: ErikCute


Intro                                      
G|-----77-7-7-8-7--------77-7-7-8-77---|
D|---8------------8----8------------8--|X 4
A|-6-----------------6-----------------|
E|-------------------------------------|

Verse A

G|-----77-7-7-8-7--------77-7-7-8-77--------77-7-7-8-7--------77-7-7-8-77---------|
D|---8------------8----8------------8-----8------------8----8------------8-10-----|
A|-6-----------------6------------------6-----------------6-----------------------|
E|--------------------------------------------------------------------------------|


G|------1212-12-12-13-12---------1212-12-12-13-1212-------------------------------|
D|---13-----------------13---13----------------------10-8-------------------------|
A|11-----------------------11-----------------------------------------------------|
E|--------------------------------------------------------------------------------|



G|-----77-7-7-8-7-------77-7-7-8-77-----------------------------------------------|
D|---8-----------8----8------------8----666---4---3-------------------------------|
A|-6----------------6----------------6/4----2---1---5\6-------------------------|
E|--------------------------------------------------------------------------------|

                                               
G|-----77-7-7-8-7--------77-7-7-8-77---|
D|---8------------8----8------------8--|
A|-6-----------------6-----------------|
E|-------------------------------------|

Verse B

G|-----77-7-7-8-7--------77-7-7-8-77--------77-7-7-8-7--------77-7-7-8-77---------|
D|---8------------8----8------------8-----8------------8----8------------8-10-----|
A|-6-----------------6------------------6-----------------6-----------------------|
E|--------------------------------------------------------------------------------|



G|------1212-12-12-13-12---------1212-12-12-13-1212-------------------------------|
D|---13-----------------13---13----------------------10-8-------------------------|
A|11-----------------------11-----------------------------------------------------|
E|--------------------------------------------------------------------------------|


G|-------77-7-7-8-7-------77-7-7-8-77----------------------------77-7-7-8-7-------|
D|-----8-----------8---8-------------8----666---4---3----------8------------8-----|
A|--6----------------6-----------------6/4----2---1---5\7/6--6--------------------|
E|--------------------------------------------------------------------------------|

G|-----------------------------77-7-----|
D|--------666---4---3--------8----------|
A|-----6\4----2---1---5\7/6-------------|
E|--------------------------------------|

Middle

G|-----77-7-7-8-7--------77-7-7-8-77--------77-7-7-8-7--------77-7-7-8-77---------|
D|---8------------8----8------------8-----8------------8----8------------8-10-----|
A|-6-----------------6------------------6-----------------6-----------------------|
E|--------------------------------------------------------------------------------|


G|------1212-12-12-13-12---------1212-12-12-13-1212-------------------------------|
D|---13-----------------13---13----------------------10-8-------------------------|
A|11-----------------------11-----------------------------------------------------|
E|--------------------------------------------------------------------------------|

Verse C -Repeat verse A
Verse D -repeat Verse B

Outro -same as intro
  .

LEGEND AND NOTES:
h: Hammer-on            p: Pull-off         b: Bend string up
r: Unbend string        /: Slide up         \: Slide down
: Harmonics       x: Muted string     v: Vibrato
t: Tap
Suggest correction
Creating personal tab
Creating personal tab
You can edit any tab online and save it as your Personal.

You can edit, replace or remove any tab part or add personal notes – all changes will be seen only by you.

Personal tabs can be accessed anytime from any device, even offline.
Learn more »
Give kudos to tab author, rate the tab!
1 2 3 4 5
comments
print report bad tab
guest
Wanna post a correction for this tab? Suggest correction