Oops, an error
Loading. Please wait.

La Muerte De Un Payaso Tab

65 views 1 this week
no commentswrite comment
1 2 3 4 5
3 more votes to show rating
add to favorites
launch autoscroll
font size
0
reset
how to read this tab
guitar tuner
Autoscroll
slow
fast
+/-
esc
set tempo
stop
Help us to improve Ultimate-Guitar.com Take our survey!
×
Omar Shane
La muerte de un payaso

INTRO

e-8--8-10-12--10-8-10--10-12-13---13-13-13--12-10-8--10-12-10--|
b--------------------------------------------------------------|
g--------------------------------------------------------------|
d--------------------------------------------------------------|
a--------------------------------------------------------------|
E--------------------------------------------------------------|


C                             G      G7
Nos cuenta la historia que un día paso
     F               C           G
Un circo distinto en el pueblo aquel
   C                   G     G7
Había un payaso que hacia reír
     F               C        G
A niños y grandes solía divertir.


F - Dm - C - G
LA LA LA LA LA LA  LA LA LA LA
 F                C          G
Cuenta la historia el payaso murió


C                       G      G7
La lagrima quieta en su cara pinto
  F                     C        G
Vuelve el presagio de llanto y dolor.


F - Dm - C - G
LA LA LA LA LA LA  LA LA LA LA
F                      C       G
Cuenta la historia el payaso murió


       C             G         G7
Fue triste la pena cuando dijo adiós
  F                 C         G
Y todo el cielo de gris se cubrió
       C               G     G7
Con llanto de niños la lluvia cayo
     F                 C         G
Y un ángel dorado con dios lo llevo.


F - Dm - C - G
LA LA LA LA LA LA  LA LA LA LA
F                      C       G
Grande es la pena el payaso murió


Intro: F - Dm - C - G    F - C - G

e-8--8-10-12--10-8-10--10-12-13---13-13-13--12-10-8--10-12-10--|
b--------------------------------------------------------------|
g--------------------------------------------------------------|
d--------------------------------------------------------------|
a--------------------------------------------------------------|
E--------------------------------------------------------------|


C                        G          G7
Por eso aquel pueblo en sombras quedo
    F                      C         G
La luz de mil sonrisas con el se marcho


F - Dm - C - G
LA LA LA LA LA LA  LA LA LA LA
F                    C       G
Grande es la pena el payaso murió


Intro: F - Dm - C - G    F - C - G

e-8--8-10-12--10-8-10--10-12-13---13-13-13--12-10-8--10-12-10--|
b--------------------------------------------------------------|
g--------------------------------------------------------------|
d--------------------------------------------------------------|
a--------------------------------------------------------------|
E--------------------------------------------------------------|


F - Dm - C - G
LA LA LA LA LA LA  LA LA LA LA
F                    C       G
Grande es la pena el payaso murió


Intro x2: F - Dm - C - G    F - C - G

e-8--8-10-12--10-8-10--10-12-13---13-13-13--12-10-8--10-12-10--|
b--------------------------------------------------------------|
g--------------------------------------------------------------|
d--------------------------------------------------------------|
a--------------------------------------------------------------|
E--------------------------------------------------------------|

___________________________________________________________________________
Suggest correction
Give kudos to tab author, rate the tab!
1 2 3 4 5
comments
print report bad tab
guest
You may want to rate the tab now too:
select rating
Wanna post a correction for this tab? Suggest correction