Oops, an error
Loading. Please wait.

How Bizarre Tab

by OMC
50,779 views 108 this week
11 commentsread comments
1 2 3 4 5
x 19
add to favorites
launch autoscroll
font size
0
reset
how to read this tab
guitar tuner
Autoscroll
slow
fast
+/-
esc
set tempo
stop
Help us to improve Ultimate-Guitar.com Take our survey!
×
(This is the entire tab to "How Bizarre" by OMC. This should
cover the whole song.  Song is played with two acoustics.
First plays C-G-F progression while other plays riffs.)

[Acoustic Intro]
E|-12-12-12\10-10-10--8--8--8\7-7-7\5-5-5\3-3-3\1-1-1/3-3/5-|
B|-13-13-13\12-12-12-10-10-10\8-8-8\6-6-6\5-5-5\3-3-3/5-5/6-|
G|----------------------------------------------------------|
D|----------------------------------------------------------|
A|----------------------------------------------------------|
E|----------------------------------------------------------|

E|-5\3-1-1-1-3-3----12-12-12\10-10-10--8--8--8\7-7-7\5-5-5-|
B|-6\5-3-3-3-5-5----13-13-13\12-12-12-10-10-10\8-8-8\6-6-6-|
G|---------------------------------------------------------|
D|---------------------------------------------------------|
A|---------------------------------------------------------|
E|---------------------------------------------------------|

C                 G
Pele's in the back
F
Zina's in the front
C                        G
Cruisin' down the highway
F
in the hot hot sun
(Stay with same progression)
Suddenly red blue lights
Flash us from behind
Loud voice booming
Please step out onto the line
Pele preach words of comfort
Zina just hides her eyes
Policeman taps his shades
Is that a Chevy 69

[Chorus]
(How bizarre)
(Chorus Riff)
E|-12-12-12\10-10-10--8--8--8\7-7-7\5-5-5\3-3-3\1-1-1-------|
B|-13-13-13\12-12-12-10-10-10\8-8-8\6-6-6\5-5-5\3-3-3-------|
G|----------------------------------------------------------|
D|----------------------------------------------------------|
A|----------------------------------------------------------|
E|----------------------------------------------------------|

Destination unknown
As we pull in for some gas
Freshly painted poster
Reveals a smile from the pack
Elephants and acrobats
Lions snakes monkeys
Pele speaks righteous
Sister Zina says funky

(How Bizarre)
E|-12-12-12\10-10-10--8--8--8\7-7-7\5-5-5\3-3-3\1-1-1-------|
B|-13-13-13\12-12-12-10-10-10\8-8-8\6-6-6\5-5-5\3-3-3-------|
G|----------------------------------------------------------|
D|----------------------------------------------------------|
A|----------------------------------------------------------|
E|----------------------------------------------------------|

Ring master step out says
The elephants left town
People jump and jive
But the clowns have stuck around
TV news and camera
There's choppers in the sky
Marines plice reporters
Ask where for and why
Pele yells we're outta here
Zina says right on
We're making moves and startin' grooves
Before they knew we're gone
Jumped into the Chevy headed for big lights
Wanna know the rest
Buy the rights

(How bizarre0
E|-12-12-12\10-10-10--8--8--8\7-7-7\5-5-5\3-3-3\1-1-1-------|
B|-13-13-13\12-12-12-10-10-10\8-8-8\6-6-6\5-5-5\3-3-3-------|
G|----------------------------------------------------------|
D|----------------------------------------------------------|
A|----------------------------------------------------------|
E|----------------------------------------------------------|

[Outro]
C-G-F progression (again, and again, and again ....)


************************************

| /  Slide up
| \  Slide down 

************************************
Suggest correction
comments
print report bad tab
11 comments total. Showing first comments. show 2 bad comments
+4 reply
DrewRoth 316 Apr 22, 2005 12:00 AM

uh....nah, the name is omc dude. you're thinkin of a different band or somethin....

guest
You may want to rate the tab now too:
select rating
Wanna post a correction for this tab? Suggest correction