Oops, an error
Loading. Please wait.

Dreaming chords

by OMD
361 views 6 this week
4 commentsread comments
1 2 3 4 5
x 5
add to favorites
×
Save as Personal and add changes to this tab that will be seen only by you. Learn more ›
×
You can save this tab as Personal to edit and correct it or add notes. All changes will be seen only by you. Learn more »
launch autoscroll
font size
0
reset
transpose
0
reset
display chords
guitar tuner
edit
Autoscroll
slow
fast
+/-
esc
set tempo
stop
Strumming
There is no strumming pattern for this song yet. and get +5 IQ
[Intro]
       F        G          F           G     
e-------------|----------|------------|---------|
B---5-6-5-----|-------5--|-8-5-8s10-8-|---------|
G---------7-5-|-4-5-7----|------------|--5---4--|
D-------------|----------|------------|---------|
A-------------|----------|------------|---------|
E-------------|----------|------------|---------|
       F        G            F         G       
e-------------|------------|---------|----------|
B---5-6-5-----|-8-5-8s10-8-|-6-5-----|----------|
G---------7-5-|------------|-----7-5-|-4-5-7-9--|
D-------------|------------|---------|----------|
A-------------|------------|---------|----------|
E-------------|------------|---------|----------|


[Verse]
   C
If you were born in heaven girl
   Dm
I'd understand so well
   Em
But ever since I've met you child
       G
You've made my life such hell
     C
With every day that passes
       Dm
I fall nearer to the ground
    Em
It seems that I've been looking for
    G
Something that won't be found


[Chorus]
           C
I was only Dreaming
           Bb
I was only trying to catch your eye
            F
I was only wishing you would notice me
   Dm                G
Instead you said goodbye


[Verse]
      C
Could this be the new answer then
   Dm
To all the dreams we've made
      Em
Could there be some solution please
    G
To rid me of this grace
    C                            Dm
But every single second that you held me in your arms
    Em
You build me up, you raise me up
    G
You kill me with your charms


[Chorus]
           C
I was only Dreaming
           Bb
I was only trying to catch your eye
            F
I was only wishing you would notice me
   Dm                G
Instead you said goodbye

       F        G          F           G     
e-------------|----------|------------|---------|
B---5-6-5-----|-------5--|-8-5-8s10-8-|---------|
G---------7-5-|-4-5-7----|------------|--5---4--|
D-------------|----------|------------|---------|
A-------------|----------|------------|---------|
E-------------|----------|------------|---------|
       F        G            F         G       
e-------------|------------|---------|----------|
B---5-6-5-----|-8-5-8s10-8-|-6-5-----|----------|
G---------7-5-|------------|-----7-5-|-4-5-7-9--|
D-------------|------------|---------|----------|
A-------------|------------|---------|----------|
E-------------|------------|---------|----------|


[Bridge]
C Am G F G

C
Would you stay with me tonight
Dm
Won't you make these feelings last
Em
Can we start this all again
G
Would that be just to much to ask


[Chorus]
           C
I was only Dreaming
           Bb
I was only trying to catch your eye
           F
I was only wishing you would notice me
   Dm                G
Instead you said goodbye
           C
I was only Dreaming
           Bb
I was only trying to catch your eye
           F
I was only wishing you would notice me
   Dm         G
Instead you said goodbye

       F        G          F           G     
e-------------|----------|------------|---------|
B---5-6-5-----|-------5--|-8-5-8s10-8-|---------|
G---------7-5-|-4-5-7----|------------|--5---4--|
D-------------|----------|------------|---------|
A-------------|----------|------------|---------|
E-------------|----------|------------|---------|
       F        G            F         G       
e-------------|------------|---------|----------|
B---5-6-5-----|-8-5-8s10-8-|-6-5-----|----------|
G---------7-5-|------------|-----7-5-|-4-5-7-9--|
D-------------|------------|---------|----------|
A-------------|------------|---------|----------|
E-------------|------------|---------|----------|repeat and fade out

            
            
Suggest correction
Creating personal tab
Creating personal tab
You can edit any tab online and save it as your Personal.

You can edit, replace or remove any tab part or add personal notes – all changes will be seen only by you.

Personal tabs can be accessed anytime from any device, even offline.
Learn more »
comments
print report bad tab
4 comments total. Showing first comments.
+1 reply
guillermopeitto 10,444 Jul 08, 2016 03:29 AM

Great song and great tab my friend ! congrats!

+1 reply
ayreon77 21,833 Jul 08, 2016 03:44 PM

great tab, these come from the same city I come from. :) use to listen to these in the 80s.

0 reply
delb0y1967 3,614 Jul 16, 2016 11:20 PM

Excellent tab for a great catchy song from one of my fave 80's groups. Nicely done !

guest
You may want to rate the tab now too:
select rating
Wanna post a correction for this tab? Suggest correction