Oops, an error
Loading. Please wait.

Hello Tab

version 1
version 1

Intro

Whole song

by Omfg
40 views 12 this week
no commentswrite comment
1 2 3 4 5
3 more votes to show rating
add to favorites
launch autoscroll
font size
0
reset
how to read this tab
guitar tuner
Autoscroll
slow
fast
+/-
esc
set tempo
stop
Help us to improve Ultimate-Guitar.com Take our survey!
×
Author
Difficulty
Capo
novice
3rd fret
Capo 3

[Intro]

e|-10-7----7----------|
B|------10---10-8-----|
G|--------------------|
D|----------------2---|
A|--------------------|
E|--------------------|


[x2]

e|-----------------------------------------|-----------------------------------------------------|
B|-------0-1-1-1-0---0--------0-3--3-0-3-0-|----------0-1-1-1-0---0--------0---------------------|
G|-----0-----------2---0--0-2--------------|--------0-----------2---0--0-2-----------------------|
D|-2-4-------------------------------------|-2--2-4--------------------------0-0---0---2---------|
A|-----------------------------------------|-------------------------------------2---2-----------|
E|-----------------------------------------|-----------------------------------------------------|


[x4]
e|------------------------|
B|-------0-1-1-1-0---0----|
G|-----0-----------2------|
D|-2-4-----------------2--|
A|------------------------|
E|------------------------|


[x4]           
e|------------|
B|-------0----|
G|-----0------|
D|-2-4-----2--|
A|------------|
E|------------|


[x1]
e|--------------------------|
B|--------------------------|
G|--------------------------|
D|-2---2---2---2---2-2-2-2--|
A|--------------------------|
E|--------------------------|
Suggest correction
Give kudos to tab author, rate the tab!
1 2 3 4 5
comments
print report bad tab
guest
You may want to rate the tab now too:
select rating
Wanna post a correction for this tab? Suggest correction