Oops, an error
Loading. Please wait.

Cheerleader tab

version 2
version 2

Whole song

by Omi
16,656 views 39 this week
no commentswrite comment
1 2 3 4 5
x 5
add to favorites
×
Save as Personal and add changes to this tab that will be seen only by you. Learn more ›
×
You can save this tab as Personal to edit and correct it or add notes. All changes will be seen only by you. Learn more »
launch autoscroll
font size
0
reset
how to read this tab
guitar tuner
edit
Autoscroll
slow
fast
+/-
esc
set tempo
stop
Author
-------------------------------------------------------------------------------
                             Cheerleader - Omi
-------------------------------------------------------------------------------
Tabbed by: Tobi Olugbenga
E-mail: Tolugbenga@aol.com

This piece is a mixture of chords and tabs but if you want to only play chords then the chords E A B A repeat
throughout the entire song. Enjoy!

Tuning: Standard

[Intro]

e|----0-0--------0-0-----------0-0--2/4-2---0--------------------------------|
B|--2----------2-------0-----2------------2----------------------------------|
G|-----------------------1---------------------------------------------------|
D|---------------------------------------------------------------------------|
A|---------------------------------------------------------------------------|
E|---------------------------------------------------------------------------|

[Pre-Chorus] (2x)
e|--------4-------5---2-7-2-------5------------------------------------------|
B|------------2-5-------------2-5--------------------------------------------|
G|------4----(2)----4-------2------------------------------------------------|
D|----2----------------------------------------------------------------------|
A|----------0----------------------------------------------------------------|
E|--0------------------------------------------------------------------------|
Do you need me? Do you think I'm pretty?
Do I make you feel like cheating and I'm like no, not really cause

(During the first chorus, personally I prefer to just barely hold the string down and chuck whenever you
hear the bass.  If you would like to play the chords during this part it goes E A B A)


[Chorus](2x)

 E    A            B              A
 Oh I think that I found myself a cheerleader,
E       A                 B        A
 She is always right there when I need her


[Pre-Chorus](2x)
e|--------4-------5---2-7-2--------5-----------------------------------------|
B|------------2-5-------------2-5--------------------------------------------|
G|------4----(2)----4-------2------------------------------------------------|
D|----2----------------------------------------------------------------------|
A|----------0----------------------------------------------------------------|
E|--0------------------------------------------------------------------------|
Do you need me? Do you think I'm pretty?
Do I make you feel like cheating and I'm like no, not really cause
(2nd time through play half of pre-chorus then go right into the chorus)


[Chorus]

e|-------4------4-2-0------4-------4-2-0------4------4-2-5-0----4-----4-2-0--|
B|-0(h)5-----0-5--------0-5-----0-5--------0-5----0-5-------0-5----0-5-------|
G|---------------------------------------------------------------------------|
D|---------------------------------------------------------------------------|
A|---------------------------------------------------------------------------|
E|---------------------------------------------------------------------------|
 Oh I think that I found myself a cheerleader,
 She is always right there when I need her

Riff: (Trumpet solo)
e|-----4------4-2-0------4------4-2-5-0---4------7/9-7-4-2-0--------------------------|
B|--0-5----0-5--------0-5----0-5-------0-5----0-5-------------------------------------|
G|------------------------------------------------------------------------------------|
D|------------------------------------------------------------------------------------|
A|------------------------------------------------------------------------------------|
E|------------------------------------------------------------------------------------|

e|-----4---2-0--0-7/9-7-5--4p2-----------(~4)--2-0--0-------0-0-0-2-4-4-4-7-9-9-9-12-12-14-14-|
B|--0-5-------2-----------------5p2-5-------------2---2----2----------------------------------|
G|--------------------------------------------------------------------------------------------|
D|--------------------------------------------------------------------------------------------|
A|----------------------------------------------------------------------------------------- --|
E|--------------------------------------------------------------------------------------------|


[Verse 3]

(Trumpet Solo Continued)
e|-7-9-7h9-12--7-4-2------ (~4)-2---0-(~4)-2---0-(~4)-2-0-0-2----------------|
B|-------------------5p2-5-------5p2--------5p2------------------------------|
G|---------------------------------------------------------------------------|
D|---------------------------------------------------------------------------|
A|---------------------------------------------------------------------------|
E|---------------------------------------------------------------------------|
She gives me love and affection, baby did I mention
You're the only girl for me, no I don't need a next one


e|-(~7)-7-9-9-7-9-9-7-9-(4x)-------------9-12--12-12-14-15/16-16/19----------|
B|---------------------------------------------------------------------------|
G|---------------------------------------------------------------------------|
D|---------------------------------------------------------------------------|
A|---------------------------------------------------------------------------|
E|---------------------------------------------------------------------------|
Mama loves you too, she thinks I made the right selection
Now all that's left to do is just for me to pop the question


[Chorus]

e|-------4------4-2-0------4-------4-2-0------4------4-2-5-0----4------4-2-0-|
B|-0(h)5-----0-5--------0-5-----0-5--------0-5----0-5-------0-5-----0-5------|
G|---------------------------------------------------------------------------|
D|---------------------------------------------------------------------------|
A|---------------------------------------------------------------------------|
E|---------------------------------------------------------------------------|
 Oh I think that I found myself a cheerleader,
 She is always right there when I need her


[Outro]

e|-----4------4-2-0------4------4-2-5-0----4-------4-2-0-------(~4)----------|
B|--0-5----0-5--------0-5----0-5--------0-5-----0-5-------0(~5)--------------|
G|---------------------------------------------------------------------------|
D|---------------------------------------------------------------------------|
A|---------------------------------------------------------------------------|
E|---------------------------------------------------------------------------|


************************************

| /   slide up
| \   slide down
| h   hammer-on
| p   pull-off
| ~   vibrato
| +   harmonic
| x   Mute note
| b   Bend
| pb  Pre-bend
| br  Bend release
| pbr Pre-bend release
| brb Bend release bend

************************************

            
            
Suggest correction
Creating personal tab
Creating personal tab
You can edit any tab online and save it as your Personal.

You can edit, replace or remove any tab part or add personal notes – all changes will be seen only by you.

Personal tabs can be accessed anytime from any device, even offline.
Learn more »
comments
print report bad tab
guest
You may want to rate the tab now too:
select rating
Wanna post a correction for this tab? Suggest correction