Oops, an error
Loading. Please wait.

Fairy Tale intro tab

by Omnia
502 views 9 this week
no commentswrite comment
1 2 3 4 5
3 more votes to show rating
add to favorites
×
Save as Personal and add changes to this tab that will be seen only by you. Learn more ›
×
You can save this tab as Personal to edit and correct it or add notes. All changes will be seen only by you. Learn more »
launch autoscroll
font size
0
reset
how to read this tab
guitar tuner
edit
Autoscroll
slow
fast
+/-
esc
set tempo
stop
Author
Difficulty
Artist: Omnia
Song: Fairy Tale
Part of the song: Intro
Tuning: Standard

Tabbed by: Jordgubbe
The melody is originally played on a harp.

[Intro] x2

e|-------------------------------------|--------------------------------------|
B|--------8----7-----------------------|--12--10----------------------8-------|
G|-----9----------9--11--12--11--------|----------12--11--12--9----------9----|
D|--9----------------------------12--9-|---------------------------9----------|
A|-------------------------------------|--------------------------------------|
E|-------------------------------------|--------------------------------------|

e|---------------------|---------10------------------------------------------|
B|------------10-------|-------------12--10----------------------------------|
G|-9--11--12-----11----|-----11--------------12--11------9-------------------|
D|------------------12-|-12--------------------------12----------------------| 
A|---------------------|-----------------------------------------------------|
E|---------------------|-----------------------------------------------------| 
                                  (this is the faster part)
Suggest correction
Creating personal tab
Creating personal tab
You can edit any tab online and save it as your Personal.

You can edit, replace or remove any tab part or add personal notes – all changes will be seen only by you.

Personal tabs can be accessed anytime from any device, even offline.
Learn more »
Give kudos to tab author, rate the tab!
1 2 3 4 5
comments
print report bad tab
guest
You may want to rate the tab now too:
select rating
Wanna post a correction for this tab? Suggest correction