Oops, an error
Loading. Please wait.

Suffer Tab

version 1
version 1

Intro

Whole song

582 views 1 this week
2 commentsread comments
1 2 3 4 5
2 more votes to show rating
add to favorites
launch autoscroll
font size
0
reset
how to read this tab
guitar tuner
Autoscroll
slow
fast
+/-
esc
set tempo
stop
Help us to improve Ultimate-Guitar.com Take our survey!
×
Author
Difficulty
Tuning
novice
B F# B E G# C#
Drop B
OBDub

|-------------------------------|
|-------------------------------|
|-------------------------------|
|----------1h4p1p0--------------|
|-0000-0-0--------1-03-6-3-2-5-2|
|-0000-0-0-----------3s6s3-2s5s2|

|-----------------------------------------|
|-----------------------------------------|
|-----------------------------------------|
|--------1h4p1p0--------------------------|
|-0~~6565-------0-00000-6-3-6-3-5-2-5-2-0~|
|-0~~6565-------0-00000-6-3s6s3-5-2s5s2-0~|
Suggest correction
Give kudos to tab author, rate the tab!
1 2 3 4 5
comments
print report bad tab
2 comments total.
0 reply
Tafka 518 Jan 14, 2008 05:16 PM

Seems okay to me.

0 reply
Me_And_Zoloft 87 May 05, 2009 07:34 PM

brutal riff

guest
You may want to rate the tab now too:
select rating
Wanna post a correction for this tab? Suggest correction