Oops, an error
Loading. Please wait.

Missing Frames tab

251 views 1 this week
2 commentsread comments
1 2 3 4 5
2 more votes to show rating
add to favorites
×
Save as Personal and add changes to this tab that will be seen only by you. Learn more ›
×
You can save this tab as Personal to edit and correct it or add notes. All changes will be seen only by you. Learn more »
launch autoscroll
font size
0
reset
how to read this tab
guitar tuner
edit
Autoscroll
slow
fast
+/-
esc
set tempo
stop
This tab isn't 100% correct, and I’m sorry!!

Palm mute-.
Hold-~
Hammer on-h
Pull off-p


Intro/verse (this isn't 100% correct)
-----------------------------------------------------------I
-----------------------------------------------------------I
--------777------------777---------------------------------I
--8~--7-----777-7h8--7-----777-7h8-------------------------I6x
--10~------------------------------------------------------I
-----------------------------------------------------------I

Pre chorus
----------------------------------------I
----------------------------------------I
----------------------------------------I1x
--555555555555555555555555555555-xxxx---I
--555555555555555555555555555555-xxxx---I
--555555555555555555555555555555-xxxx---I

Chorus
------------------------------------------------------------------------I
------------------------------------------------------------------------I
------------------------------------------------------------------------I
--8888888888888888--7777777777777777--55555555555555555555555555555555--I4x
--8888888888888888--7777777777777777--55555555555555555555555555555555--I
--8888888888888888--7777777777777777--55555555555555555555555555555555--I

Verse (again, not 100% correct)
-----------------------------------------------------------I
-----------------------------------------------------------I
--------777------------777---------------------------------I
--8~--7-----777-7h8--7-----777-7h8-------------------------I4x
--10~------------------------------------------------------I
-----------------------------------------------------------I

Pre chorus
-------------------------------------------------------------------------I
-------------------------------------------------------------------------I
-------------------------------------------------------------------------I
--888888888888888888888888888888--xxxx-----------------------------------I
--888888888888888888888888888888--xxxx-----------------------------------I
--888888888888888888888888888888--xxxx-----------------------------------I

Chorus
------------------------------------------------------------------------I
------------------------------------------------------------------------I
------------------------------------------------------------------------I
--8888888888888888--7777777777777777--55555555555555555555555555555555--I4x
--8888888888888888--7777777777777777--55555555555555555555555555555555--I
--8888888888888888--7777777777777777--55555555555555555555555555555555--I

Bridge
------------------------I
------------------------I
------------------------I1x
--11--33----------------I
--11--33----------------I
--11--33----------------I
  .   .
Bridge
----------------------------------------------------------------------I
----------------------------------------------------------------------I
----------------------------------------------------------------------I
--55555555----------------88888888--77777-----------------------------I5x
--55555555----------------88888888--77777-----------------------------I
--55555555----------------88888888--77777-----------------------------I
  .......                 .......   .....

End
------------------------I
------------------------I
------------------------I1x
--11--33----------------I
--11--33----------------I
--11--33----------------I
  .   .

            
            
Suggest correction
Creating personal tab
Creating personal tab
You can edit any tab online and save it as your Personal.

You can edit, replace or remove any tab part or add personal notes – all changes will be seen only by you.

Personal tabs can be accessed anytime from any device, even offline.
Learn more »
Give kudos to tab author, rate the tab!
1 2 3 4 5
comments
print report bad tab
2 comments total.
0 reply
blackoctober119 383 Jan 21, 2009 05:39 PM

good, but i wish you would've tabbed out the lead parts too...

0 reply
blackoctober119 383 Jan 21, 2009 06:00 PM

kay i actually managed to figure it out on my own :D
Chorus
e-------------------| |---------------------|
B-------------------| |---------------------|
G-------------------|then|-1515-1414-1515-1717-|
D-8-8-7-8-10-8-13-8-| |---------------------|
A-------------------| |---------------------|
D-------------------| |---------------------|

and bridge

e-------------------|
B-------------------|
G-12-15-14--88-1010-|
D-------------------|
A-10-13-12--66-8-8--|
E-------------------|
you can figure out the timing and number of times to play each one from listening to the song.

guest
Wanna post a correction for this tab? Suggest correction