Oops, an error
Loading. Please wait.

El Globo Tab

29 views 1 this week
no commentswrite comment
1 2 3 4 5
3 more votes to show rating
add to favorites
launch autoscroll
font size
0
reset
how to read this tab
guitar tuner
×
Best way to learn
"El Globo"
Autoscroll
slow
fast
+/-
esc
set tempo
stop
Intro:


e---------------------------------------
B---------------------------------------
G---------------------------------------
D---------------------------------------
A----------------------6-----7-7-7-6-6-6-
E---------4---4-4-4-7--------------------

e---------------------------------------
B---------------------------------------
G---------------------------------------
D------------------------------6--------
A------------------------6-7-9----9-7-6-
E------4---4-4-4-7-4--------------------

e---------------------------------------
B---------------------------------------
G---------------------------------------
D---------------------------------------
A----------------------6-----7-7-7-6-6-6-
E---------4---4-4-4-7--------------------

e---------------------------------------
B---------------------------------------
G---------------------------------------
D------------------------------6--------
A------------------------6-7-9----9-7-6-
E------4---4-4-4-7-4--------------------

        <     <     <       <     <     <
e---4---4-----2-----1---4---4-----2-----1---
B---4---4-----2-----2---4---4-----2-----2---
G---4---4-----3-----1---4---4-----3-----1---
D---6---6-----4---------6---6-----4---------
A---6---6-----4---------6---6-----4---------
E---4---4-----2---------4---4-----2---------

        <     <     <       <     <     <
e---4---4-----2-----1---4---4-----2-----1---
B---4---4-----2-----2---4---4-----2-----2---
G---4---4-----3-----1---4---4-----3-----1---
D---6---6-----4---------6---6-----4---------
A---6---6-----4---------6---6-----4---------
E---4---4-----2---------4---4-----2---------

e---------------------------------------
B---------------------------------------
G---------------------------------------
D---------------------------------------
A----------------------6-----6-6-7-6-6-6-
E---------4---4-4-4-7--------------------

e---------------------------------------
B---------------------------------------
G---------------------------------------
D------------------------------6--------
A------------------------6-7-9----9-7-6-
E------4---4-4-4-7-4--------------------

e------------------------------------------
B------------------------------------------
G------------------------------------------
D--------------------------------4---------
A----------------------6-----6-7------7-6-4
E---------4---4-4-4-7----------------------


               <     <
e--------------2-----1--------
B--------------2-----2--------
G--------------3-----1--------
D--------------4--------------
A------4/6-----4--------------
E---7----------2--------------

Los acordes yas los posteó otro y estan bastante bn...

son: G#m

    E-4-
    B-4-
    G-4-
    D-6-
    A-6-
    E-4-


  F#

  E-2-
  B-2-
  G-3-
  D-4-
  A-4-
  E-2-

  C#

  E-1-
  B-2-
  G-1-
  D-x-
  A-x-
  E-x-
Suggest correction
Give kudos to tab author, rate the tab!
1 2 3 4 5
comments
print report bad tab
guest
You may want to rate the tab now too:
select rating
Wanna post a correction for this tab? Suggest correction