Oops, an error
Loading. Please wait.

Injusticia Divina Chords

44 views 1 this week
no commentswrite comment
1 2 3 4 5
3 more votes to show rating
add to favorites
launch autoscroll
font size
0
reset
transpose
0
reset
simplify chords
display chords
guitar tuner
×
Best way to learn
"Injusticia Divina"
Autoscroll
slow
fast
+/-
esc
set tempo
stop
 Intro: (Am E7 Am E7) x2

Parte I
 Am
 Donde está lo mío mujer,
          E7
 yegua desalmada
 Am
 donde has dejado mi piel,
             E7
 debajo de la cama quizás
C            Dm             Am
 y amanesco tumbao sin poder contestar,
C        Dm         E7
 y que carajo hago acá

Pasaje: Em
Am
 Encontré mi alma dentro de un cajón

 qué pasó con tu risa que ahora está hecha un bajón?
       Am            E7
 y dejaré que siga ocurriendo
       Am                     E7
 no dejaré que se vaya oscureciendo
C            Dm           Am  E7
 prestame un poco de atención

Puente:
C      Dm         Am
 Pelearé por un amanecer
           C             Dm            E7
 solo uno más, solo uno más, solo uno más.

Parte II
Dm                               Am
 Cavo, cavo, cavo en busca de algún querubín
Dm                                     Am
 que me atorgue una noche de estrellas y de rubí
          G                             Am
 y esperaré abajo de la sombra de algún árbol muerto
Dm                      E7
 echó a la suerte mi final

(Am E7 Am E7)
Punteo:

E -12-10-------------------------------------------
B -------13-12-13-12-10-12-10-12-13-10-13-12-10-12-
G -------------------------------------------------

E --------------------------------------------------
B -13-12-10-----12-10-------10---------8---------8--
G ----------12-------12-10----12-10-8---10-8-10---10


E -----------------------12-10-12-13-12-10-12-13-15-
B -8-10-8-10-12-10-12-13----------------------------
G --------------------------------------------------


E 13-12-13-15-12-13-15-13-12-10---------------------
B ------------------------------13-13-10-10-10-10-12
G --------------------------------------------------

E -------------------------------------
B --10-12-14-12-14-15-14-15-17-14-15-17
G -------------------------------------

Puente: pelearé ...
Parte II
 Cavo, cavo, cavo en busca de algún querubín

 que me atorgue una noche de estrellas y de rubí

 vago, vago en vano buscando mi lugar

 y quien me dice si algún día lo voy a encontrar

 y esperaré abajo de la sombra de algún árbol muerto

 echó a la suerte mi final.


Bueno, aca está esta rola del 11, espero que les guste,
si ven algun error avisen a gspalvier@
 un saludo a 'el pelu' y aguante el rock nacional
Suggest correction
Give kudos to tab author, rate the tab!
1 2 3 4 5
comments
print report bad tab
guest
You may want to rate the tab now too:
select rating
Wanna post a correction for this tab? Suggest correction