Oops, an error
Loading. Please wait.

Lo Mas Valioso Tab

29 views 1 this week
no commentswrite comment
1 2 3 4 5
3 more votes to show rating
add to favorites
launch autoscroll
font size
0
reset
how to read this tab
guitar tuner
×
Best way to learn
"Lo Mas Valioso"
Autoscroll
slow
fast
+/-
esc
set tempo
stop
INTRO


E--10--12-12-10-10-7-5---5-5-5-5-7-5-7----
B-----------------------------------------
G--11--12-12-11-11-7-6---6-6-6-6-7-6-7----

E--10-10-10-10-10-7-5--7-5-7-5-7-5----10-10
B-----------------------------------------
G--11-11-11-11-11-7-6--7-6-7-6-7-6----11-11

E--10-12-14-13-12-10-----------------------
B------------------------------------------
G--11-12-14-13-12-11-----------------------


ES LA PRIMERA TRANSCRIPCION Q HAGO :P
ESPERO Q ESTE BIEN YA Q LA SAKE DE OIDO ASIQ...

SALUDOS, TOMAS LESTARD
Suggest correction
Give kudos to tab author, rate the tab!
1 2 3 4 5
comments
print report bad tab
guest
You may want to rate the tab now too:
select rating
Wanna post a correction for this tab? Suggest correction