Oops, an error
Loading. Please wait.

Maldicion Tab

version 1
version 1

Whole song

89 views 1 this week
no commentswrite comment
1 2 3 4 5
2 more votes to show rating
add to favorites
launch autoscroll
font size
0
reset
how to read this tab
guitar tuner
×
Best way to learn
"Maldicion"
Autoscroll
slow
fast
+/-
esc
set tempo
stop
Hola a todos!Me llamo Martin y eta es mi primer trascripción.

Cualquier duda, comentario, sugerencia y/o corrección mandarme un mail.

Saludos

Intro:

e:-------------------------------------x-----------------------------
B:-------------10------------------7---x---7h8p7h8-8/10---10-8-7h8p7-
G:-----7h9/11-----11p9p7-----------7---x---7h9p7h9-9/11---11-9-7h9p7-
D:---9--------------------9---7h9------------------------------------
A:-------------------------------------------------------------------
E:-------------------------------------------------------------------


--------------------------------14/12--------12/10-------10/9-----9---
--7-----7-----12---(12)/--12-15--------10-14--------8-12-------7------
--9b11--9b11--14b16---------------------------------------------------
----------------------------------------------------------------------
----------------------------------------------------------------------
----------------------------------------------------------------------

--7/---15-----10--------12----------------10----------10-12b14-12-----
--7/---17--------12--------14--------12------12----12--------------15-
--------------------12--------14--------------------------------------
----------------------------------------------------------------------
----------------------------------------------------------------------
----------------------------------------------------------------------

------------------------------------10--------------------------------
--14-12---15-14-12-----10h12-12-10-----12-----------------------------
-------------------14-------------------------------------------------
----------------------------------------------------------------------
----------------------------------------------------------------------
----------------------------------------------------------------------


Arreglos:

... como ayer  E:--9-10-12-10---9-10-12-10-9----------
               B:----------------------------10--10/12

... televisión B:--7-------7-----------
               G:--9b11r9--9b11r9---7/4

... natural    E:--------------------2---------------2
               B:--------------------3--0h2h3p2p0----3
               G:------7--------------------------2---
               D:--7/9---7h9p7/4--4-------------------

... colgar     B:--10h12--10----10h12
               G:------------11------

... lo que hay e:--10-10-12-12/10
               B:--12-12-14-14/12

... A pasar    E:----10-9-7----9---------10---
               B:--10-------10---9-10/12----12
Suggest correction
Give kudos to tab author, rate the tab!
1 2 3 4 5
comments
print report bad tab
guest
You may want to rate the tab now too:
select rating
Wanna post a correction for this tab? Suggest correction