Oops, an error
Loading. Please wait.

Maldicion Tab

version 2
version 2

Whole song

54 views 1 this week
no commentswrite comment
1 2 3 4 5
3 more votes to show rating
add to favorites
launch autoscroll
font size
0
reset
how to read this tab
guitar tuner
Autoscroll
slow
fast
+/-
esc
set tempo
stop
Help us to improve Ultimate-Guitar.com Take our survey!
×
Bueno la tab de la intro de Maldición..Corrección de la de chope


 --------------------------------
 ----------10----------------7--W
 --7-h9-11----9--7-----------7--A
 9------------------9--7-h9-----C
 -------------------------------K
 -------------------------------A

 ---------------------------------------
 8--8--8--8--/10---------------------7------
 7-h9--7-h9--/11-----11-9-7-h9-p7-h9-9b(11)-
 ---------------------------------------
 ---------------------------------------
 ---------------------------------------

 ---------------14-12-------12-10-------10-8-------8-7-
 10b(12)-12-h15-------10-h12------8-h10-------7-8------
 ------------------------------------------------------
 ------------------------------------------------------
 ------------------------------------------------------
 ------------------------------------------------------

 7-----12----10------12---------------10-------
 7-----12-------12------14--------12-----12---
 -----------------12-------14----------
 --------------------------------------------
 --------------------------------------------
 --------------------------------------------


 ----10--12b(14)--
 -12--------------
 -----------------
 -----------------
 -----------------
 -----------------

12--10--9--------10--9----------------------------10-----
-----------10-------------12--10---10-h12--12--10-----12-
---------------------------------------------------------
---------------------------------------------------------
---------------------------------------------------------
---------------------------------------------------------
Suggest correction
Give kudos to tab author, rate the tab!
1 2 3 4 5
comments
print report bad tab
guest
You may want to rate the tab now too:
select rating
Wanna post a correction for this tab? Suggest correction