Oops, an error
Loading. Please wait.

Maldicion Tab

version 4
version 4

Whole song

38 views 1 this week
no commentswrite comment
1 2 3 4 5
3 more votes to show rating
add to favorites
launch autoscroll
font size
0
reset
how to read this tab
guitar tuner
×
Best way to learn
"Maldicion"
Autoscroll
slow
fast
+/-
esc
set tempo
stop
b - bend (estirar)
br- bend and release (estirar y volver)
p - pull off (ligado descendente)
/ - slide
h - hummer
v - vibrato

Les mando la correccion de los acordes de esta cancion,
con el intro y el último solo que tenian algunos errores.
Cualquier cosa escriban.

Intro:
======

e:-------------------------------------x-----------------------------
B:-------------10------------------7---x---7h8p7h8-8/10---10-8-7h8p7-
G:-----7h9b11-----11p9p7-----------7---x---7h9p7h9-9/11---11-9-7h9p7-
D:---9--------------------9-9--7h9-----------------------------------
A:-------------------------------------------------------------------
E:-------------------------------------------------------------------

------------------------10----14/12------9----12/10---7----10/9---9--
--7-----7-----12-----12---------------10------------8-----------7----
--9b11--9b11--14b16--------------------------------------------------
---------------------------------------------------------------------
---------------------------------------------------------------------
---------------------------------------------------------------------

--7/---12-----10--------12----------------10----------10-12/14--12---
--7/---12--------12--------14--------12------12----12--------------15
--------------------12--------14-------------------------------------
---------------------------------------------------------------------
---------------------------------------------------------------------
---------------------------------------------------------------------

------------------------------------10-------------------------------
--14-12---15-14-12---10-10/12-12-10-----12v--------------------------
---------------------------------------------------------------------
---------------------------------------------------------------------
---------------------------------------------------------------------
---------------------------------------------------------------------


Versos:
=======
      Bm       G       F#
Maldicion otro dia como ayer,
    Bm            G         F#
sentado frente a la television,
      Bm          G        D - A
mutacion es mi estado natural,
      Bm           G           F#
peligroso pal que se quiera colgar.

         Bm           G           F#
...y la razon no la ves ni por decreto de Dios.


Estribillo:
===========
       Bm          G        A
Y hay mas de lo que vos sabes,
       Bm          G       A
y hay mas de lo que imaginas,
       Bm          G    A
y hay mas de lo que crees,
       A
y hay mas de lo que podes.


Parte pesada:
============
B5 - A5 - E5

No toques de oido
que me voy pal otro lado
que me sale el salado
que tengo dentro de mi...


Ultimo solo:
============

E|------------------------7------------10-12-14--12-10--10----10-----|
B|-7-----------7----------10b12------12---------------12--------12-12|
G|-9b11p9-7-9--9b11p9------------------------------------------------|
D|-------9----------9-8-9--------------------------------------------|
A|-------------------------------------------------------------------|
E|-------------------------------------------------------------------|

E|-10----10-----------7--7-7-7-9-10--7-9-10/12--10-9-7--7------------|
B|---0-12--0-10-------7--7-7--------------------------10-------------|
G|--------------9-9b-----7-7-----------------------------------------|
D|-------------------------------------------------------------------|
A|-------------------------------------------------------------------|
E|-------------------------------------------------------------------|

E|-10p9p7-10p9p7-10p9p7-10p9p7-12p10p9-12p10p9-12p10p9-12p10p9-------|
B|-------------------------------------------------------------------|
G|-------------------------------------------------------------------|
D|-------------------------------------------------------------------|
A|-------------------------------------------------------------------|
E|-------------------------------------------------------------------|

E|-10p9p7-10p9p7------------------------|
B|---------------10p8p7-10p8p7----------|
G|------------------------------7-7--7-7|
D|------------------------------9-9--9-9|
A|------------------------------9-9--9-9|
E|------------------------------7-7--7-7|
Suggest correction
Give kudos to tab author, rate the tab!
1 2 3 4 5
comments
print report bad tab
guest
You may want to rate the tab now too:
select rating
Wanna post a correction for this tab? Suggest correction