Oops, an error
Loading. Please wait.

Mis Amigos Chords

41 views 3 this week
no commentswrite comment
1 2 3 4 5
3 more votes to show rating
add to favorites
launch autoscroll
font size
0
reset
transpose
0
reset
display chords
guitar tuner
×
Best way to learn
"Mis Amigos"
Autoscroll
slow
fast
+/-
esc
set tempo
stop
intro:

e---------------------------------
B---------------------------------
G-------------7-5-5-5--2-0--------
D------2---2---------------3-0-3/5
A--2-4---4------------------------
E---------------------------------


e---------------------------------
B---------------------------------
G---------------------------------
D-2-0-----------------------------
A-----2-0-------0--2-2-2-0--------
E---------3-0-3------------3-0----


G                            Am
Mis amigos constantemente me mienten,
G                                     Am
hablan mal de mí, hablan mal de la gente,
G                             Am
y tu vida que de verdad tiene poca
G                                 Am
no se asusta cuando le tapan la boca.

Tu sonrisa que se disipa en la noche,
como la mía, como la de los que no oyen,
entonces habla y dime lo que no me importa,
y te contestaré con mi cara de idiota.


D                  Am
Mis amigos no quieren hablar,
D                    Am
siempre tienen algo más que hacer,
C                  D
ponen cara de que no me ven?
Am    G
y es así,
D             C
amigablemente nos tratamos mal,
Am     G
sin rencor,
D                     C
que ya no me importa más el qué dirán.

e---------------------------------
B---------------------------------
G---------------------------------
D-2-0-----------------------------
A-----2-0-------0--2-2-2-0--------
E---------3-0-3------------3-0----

G                            Am
Mis amigos solo siguen la corriente
y esperan, a lo mejor, lo peor de la gente,
me pregunto si de verdad les importa
o solo están ahí porque no hay otra cosa.

Mis amigos no quieren hablar,
siempre tienen algo más que hacer,
ponen cara de que no me ven?
y ya entendí,
amigablemente nos tratamos mal,
sin rencor,
que ya no me importa más el qué dirán?
y es así,
amigablemente nos tratamos mal,
sin rencor,
que ya no me importa más el qué dirán.

solo de saxo

Em-G-C
Em-G-D

VIOLA

C-D-Em

Ya entendí,
amigablemente nos tratamos mal,
sin rencor,
que ya no me importa más el qué dirán,
y es así,
amigablemente nos tratamos mal,
sin rencor,
que ya no me importa más el qué dirán

Am-G

A-Bm

(esos cambios medios locos de once tiros, uds me entienden! jaja)

por supuesto que termina en LA mayor

santionce@
Suggest correction
Give kudos to tab author, rate the tab!
1 2 3 4 5
comments
print report bad tab
guest
You may want to rate the tab now too:
select rating
Wanna post a correction for this tab? Suggest correction