Oops, an error
Loading. Please wait.

Televicio Bass Tab

32 views 1 this week
no commentswrite comment
1 2 3 4 5
3 more votes to show rating
add to favorites
launch autoscroll
font size
0
reset
guitar tuner
Autoscroll
slow
fast
+/-
esc
set tempo
stop
Help us to improve Ultimate-Guitar.com Take our survey!
×
PARTE A


  1     2     3     4     1     2     3     4

G|-----------------------|-----------------------|
D|------------2-----1----|------------5-----4----|
A|0--------0-------------|3--------3-------------|
E|-----------------------|-----------------------|

  1     2     3     4     1     2     3     4

G|-----------------------|-----------------------|
D|------------2-----1----|-----------------------|
A|0--------0-------------|3--------3-------------|
E|-----------------------|------------3-----2----|

---------------------------------------------------

PARTE B


  1     2     3     4     1     2     3     4

G|-----------------------|-----------------------|
D|-----------------------|-----------------------|
A|0----------------------|3----------------------|
E|-----------------------|-----------------------|

  1     2     3     4     1     2     3     4

G|-----------------------|-----------------------|
D|-----------------------|-----------------------|
A|0----------------------|3----------------------|
E|-----------------------|------------3-----2----|

---------------------------------------------------

PARTE C


  1     2     3     4     1     2     3     4     1     2     3     4

G|-----------------------|-----------------------|----------------------|
D|------------2-----1----|------------5-----4----|----------------------|
A|0--------0-------------|3--------3-------------|----------------------|
E|-----------------------|-----------------------|5/3---5/3---5---------|

-------------------------------------------------------------------------

PARTE D


  1     2     3     4     1     2     3     4     1     2     3     4

G|-----------------------|-----------------------|----------------------|
D|------------5-----4----|------------2-----1----|----------------------|
A|3--------3-------------|0--------0-------------|3--------3------------|
E|-----------------------|-----------------------|------------3-----2---|

------------------------------------------------------------------------

PARTE E


  1     2     3     4     1     2     3     4     1     2     3     4

G|-----------------------|-----------------------|----------------------|
D|-----------------------|------------2----------|------------------2---|
A|------------2-----3----|5--5-----5-------------|------2-----3---------|
E|5--5-----5-------------|---------------------3-|5---------------------|


  1     2     3     4

G|-----------------------|
D|------------2----------|
A|5--5-----5-------------|
E|---------------------3-|
------------------------------------------------------------------------

PARTE F


  1     2     3     4     1     2     3     4     1     2     3     4

G|-----------------------|-----------------------|----------------------|
D|-----------------------|------------2----------|------------------2---|
A|------------2-----3----|5--5-----5-------------|------2-----3---------|
E|5--5-----5-------------|---------------------3-|5---------------------|


  1     2     3     4     1     2     3     4     1     2     3     4

G|-----------------------|-----------------------|----------------------|
D|------------2--------2-|-----------------------|----------------------|
A|5--5-----5--------5----|7          /          0|2-----------3---------|
E|-----------------------|-----------------------|----------------------|


  1     2     3     4     1     2     3     4     1     2     3     4

G|-----------------------|-----------------------|----------------------|
D|2-----2-----2-----2----|-----------------------|2--2--2--2--2--2--2--2|
A|-----------------------|3-----3-----5-----5----|----------------------|
E|-----------------------|-----------------------|----------------------|


  1     2     3     4     1     2     3     4    1     2     3     4

G|-----------------------|----------------------|----------------------|
D|-----------------------|2--2--2--2--2--2--2--2|----------------------|
A|3--3--3--3--5--5--5--5-|----------------------|3--3--3--3--5--5--5--5|
E|-----------------------|----------------------|----------------------|

  1     2     3     4

G|-----------------------|
D|-----------------------|
A|-----------------------|
E|5p3---5p3---5p3---5p3--|


---------------------------------------------------------------------

Parte G1


  1     2     3     4     1     2     3     4     1     2     3     4

G|---2--2--------4----5-|---7--7----------------|---2-----4-----5-----9|
D|----------------------|---------------5-----6-|----------------------|
A|0--------0--2-----3---|5--------5-------------|0-----2-----3-----7---|
E|----------------------|------------3-----4----|----------------------|


  1     2     3     4

G|---7--7----------------|
D|---------------5-----6-|
A|5--------5-------------|
E|------------3-----4----|

-------------------------------------------------------------------

PARTE G2


  1     2     3     4    1     2     3     4    1     2     3     4

G|---2--2--------4----5-|---7--7---------------|---2-----4-----5-----9|
D|----------------------|---------------5-----6|----------------------|
A|0--------0--2-----3---|5--------5------------|0-----2-----3-----7---|
E|----------------------|------------3-----4---|----------------------|


   1     2     3     4

G|---7-----7      /     0|
D|-----------------------|
A|5-----5----------------|
E|-----------------------|


*ORDEN Y REPETICION DE PARTES

Parte A x 3
Parte B
Parte A
Parte C
Parte D
Parte A
Parte E x 2
Parte A x 5
Parte E x 3
Parte F
Parte A x 4
Parte E x 4
Parte G1
Parte G2
Parte E hasta terminar

Música de Once Tiros

Pasado a tablatura por Javier Francia


Pido perdón por no poner exactamente el ritmo en las partes
G1 y G2, debido a la complejidad de escribirlo en tablatura.
Suggest correction
Give kudos to tab author, rate the tab!
1 2 3 4 5
comments
print report bad tab
guest
You may want to rate the tab now too:
select rating
Wanna post a correction for this tab? Suggest correction