Oops, an error
Loading. Please wait.

Love Me Less Tab

85 views 1 this week
no commentswrite comment
1 2 3 4 5
1 last vote to show rating
add to favorites
launch autoscroll
font size
0
reset
how to read this tab
guitar tuner
Autoscroll
slow
fast
+/-
esc
set tempo
stop
Help us to improve Ultimate-Guitar.com Take our survey!
×
Author
One Day
Love Me Less


[Intro]

e|-------------------------------------------------------|
B|-------------------------------------------------------|
G|-----6----5-----6-----9------6----5----6-----9---------|
D|-----7----6-----6-----9------7----6----6-----9---------|
A|--------------4-----7----------------4-----7-----------|
E|---5----4------------------5----4----------------------|

e|-------------------------------------------------------|
B|-------------------------------------------------------|
G|-----6----5-----6-----7------6----6----5-----5--5------|
D|-----7----6-----6-----7------7----7----6-----6--6------|
A|--------------4-----5----------------------------------|
E|---5----4------------------5----5----4------4----------|


[Chorus: Jimmy Nice]

e|-------------------------------------------------------|
B|-------------------------------------------------------|
G|-----6----5-----6-----9------6----5----6-----9---------|
D|-----7----6-----6-----9------7----6----6-----9---------|
A|--------------4-----7----------------4-----7-----------|
E|---5----4------------------5----4----------------------|

e|-------------------------------------------------------|
B|-------------------------------------------------------|
G|-----6----5-----6-----7------6----6----5-----5--5------|
D|-----7----6-----6-----7------7----7----6-----6--6------|
A|--------------4-----5----------------------------------|
E|---5----4------------------5----5----4------4----------|

I cheat on every woman I've ever been with
Do you love me less?
I know this truth is stranger than fiction, girl
I must confess
I loved every women I've ever been with with
But you know the rest
Wanna get caught up in my mess
Well, be my guest, be my guest, girl


[Verse 1: Jimmy Nice]

e|-------------------------------------------------------|
B|-------------------------------------------------------|
G|-----6----5-----6-----9------6----5----6-----9---------|
D|-----7----6-----6-----9------7----6----6-----9---------|
A|--------------4-----7----------------4-----7-----------|
E|---5----4------------------5----4----------------------|

e|-------------------------------------------------------|
B|-------------------------------------------------------|
G|-----6----5-----6-----7------6----6----5-----5--5------|
D|-----7----6-----6-----7------7----7----6-----6--6------|
A|--------------4-----5----------------------------------|
E|---5----4------------------5----5----4------4----------|

For me to explain my first line to ya
It's best to take you back to the scene of my first time
I was on Edith Street with a freak named Maddy
And a three litre cask of wine, flowers in bloom
In her friend's sister's room
What's better than a girl who says 'yes' too soon?
Two of them
So I guess there lies the root of my problem
I flow like the weather: I never commit
But I ain’t cheat on every girl I ever been with
Now I got your attention, riddle me this
Put your man up in a cab then sent me a kiss
But your car nearby, so where do you live?
Could go to yours, go to mine, wherever, you pick
Arrowheads through the bed man he never miss
Told her my room's a mess, said 'I bet it is'


[Chorus: Jimmy Nice]

e|-------------------------------------------------------|
B|-------------------------------------------------------|
G|-----6----5-----6-----9------6----5----6-----9---------|
D|-----7----6-----6-----9------7----6----6-----9---------|
A|--------------4-----7----------------4-----7-----------|
E|---5----4------------------5----4----------------------|

e|-------------------------------------------------------|
B|-------------------------------------------------------|
G|-----6----5-----6-----7------6----6----5-----5--5------|
D|-----7----6-----6-----7------7----7----6-----6--6------|
A|--------------4-----5----------------------------------|
E|---5----4------------------5----5----4------4----------|

I cheat on every woman I've ever been with
Do you love me less?
I know this truth is stranger than fiction, girl
I must confess
I loved every women I've ever been with with
But you know the rest
Wanna get caught up in my mess
Well, be my guest, be my guest, girl


[Verse 2: Nick Lupi]

e|-------------------------------------------------------|
B|-------------------------------------------------------|
G|-----6----5-----6-----9------6----5----6-----9---------|
D|-----7----6-----6-----9------7----6----6-----9---------|
A|--------------4-----7----------------4-----7-----------|
E|---5----4------------------5----4----------------------|

e|-------------------------------------------------------|
B|-------------------------------------------------------|
G|-----6----5-----6-----7------6----6----5-----5--5------|
D|-----7----6-----6-----7------7----7----6-----6--6------|
A|--------------4-----5----------------------------------|
E|---5----4------------------5----5----4------4----------|

She wanna mess 'round, but she don't want to get let down
Stretched out on my bed, be my guest now
Tell me, would you love me less now
You're well aware how I get down?
Whether pulling at your chair when we step out
Or pulling on your hair like you're stressed out
Shit, we've been everywhere so where now?
From here out, this we should be clear about, here me out


[Verse 2: Kai]

e|-------------------------------------------------------|
B|-------------------------------------------------------|
G|-----6----5-----6-----9------6----5----6-----9---------|
D|-----7----6-----6-----9------7----6----6-----9---------|
A|--------------4-----7----------------4-----7-----------|
E|---5----4------------------5----4----------------------|

e|-------------------------------------------------------|
B|-------------------------------------------------------|
G|-----6----5-----6-----7------6----6----5-----5--5------|
D|-----7----6-----6-----7------7----7----6-----6--6------|
A|--------------4-----5----------------------------------|
E|---5----4------------------5----5----4------4----------|

I used to keep an eye out like writters in the alley
But baby en pointe like the ballet, I feel like love
About to give her the keys a valet
And quit riding around like a Mustang Sally
But, before we go too far
Girl you got to know I'm no shooting star
Mascara tears running down my past
I'll try to treat you right but you know what it's like


[Chorus: Jimmy Nice]

e|-------------------------------------------------------|
B|-------------------------------------------------------|
G|-----6----5-----6-----9------6----5----6-----9---------|
D|-----7----6-----6-----9------7----6----6-----9---------|
A|--------------4-----7----------------4-----7-----------|
E|---5----4------------------5----4----------------------|

e|-------------------------------------------------------|
B|-------------------------------------------------------|
G|-----6----5-----6-----7------6----6----5-----5--5------|
D|-----7----6-----6-----7------7----7----6-----6--6------|
A|--------------4-----5----------------------------------|
E|---5----4------------------5----5----4------4----------|

I cheat on every woman I've ever been with
Do you love me less?
I know this truth is stranger than fiction, girl
I must confess
I loved every women I've ever been with with
But you know the rest
Wanna get caught up in my mess
Well, be my guest, be my guest, girl


[Verse 3: Solo]

e|-------------------------------------------------------|
B|-------------------------------------------------------|
G|-----6----5-----6-----9------6----5----6-----9---------|
D|-----7----6-----6-----9------7----6----6-----9---------|
A|--------------4-----7----------------4-----7-----------|
E|---5----4------------------5----4----------------------|

e|-------------------------------------------------------|
B|-------------------------------------------------------|
G|-----6----5-----6-----7------6----6----5-----5--5------|
D|-----7----6-----6-----7------7----7----6-----6--6------|
A|--------------4-----5----------------------------------|
E|---5----4------------------5----5----4------4----------|

Now I was at the merch desk, tryna mind my own
Left my girl for another long night alone
Holed in a hotel, miles from home
My t-shirt soaked through with sweat
I just rocked a set, and if you'd like to know
Right now I'm feeling flatter than the battery inside my phone
When Miss Fly walks by with the flattery
Tryna challenge me to go head-to-head, toe-to-toe
Making eyes, touching hands and flirting
Baby girl, tryna put some work in
But I know one thing for certain
I want you, but I don't want to be that person
So, listen, vixen, I'm fixing to making a mistake
If I don't vacate up out of this place
Stranger than fiction, now she waits in the distance
It can all change in an instant


[Bridge: Solo]

e|-------------------------------------------------------|
B|-------------------------------------------------------|
G|-----6----5-----6-----9------6----5----6-----9---------|
D|-----7----6-----6-----9------7----6----6-----9---------|
A|--------------4-----7----------------4-----7-----------|
E|---5----4------------------5----4----------------------|

e|-------------------------------------------------------|
B|-------------------------------------------------------|
G|-----6----5-----6-----7------6----6----5-----5--5------|
D|-----7----6-----6-----7------7----7----6-----6--6------|
A|--------------4-----5----------------------------------|
E|---5----4------------------5----5----4------4----------|

It's something that you do, to me
Got me howling at the moon, how you do
So come on in before you make yourself at home
You should know a couple of things, where to begin


[Chorus: Jimmy Nice]

e|-------------------------------------------------------|
B|-------------------------------------------------------|
G|-----6----5-----6-----9------6----5----6-----9---------|
D|-----7----6-----6-----9------7----6----6-----9---------|
A|--------------4-----7----------------4-----7-----------|
E|---5----4------------------5----4----------------------|

e|-------------------------------------------------------|
B|-------------------------------------------------------|
G|-----6----5-----6-----7------6----6----5-----5--5------|
D|-----7----6-----6-----7------7----7----6-----6--6------|
A|--------------4-----5----------------------------------|
E|---5----4------------------5----5----4------4----------|

I cheat on every woman I've ever been with
Do you love me less?
I know this truth is stranger than fiction, girl
I must confess
I loved every women I've ever been with with
But you know the rest
Wanna get caught up in my mess
Well, be my guest, be my guest, girl
Suggest correction
Give kudos to tab author, rate the tab!
1 2 3 4 5
comments
print report bad tab
guest
You may want to rate the tab now too:
select rating
Wanna post a correction for this tab? Suggest correction