Oops, an error
Loading. Please wait.

Ghosts tab

version 1
version 1

Whole song

Interactive

186 views 1 this week
no commentswrite comment
1 2 3 4 5
3 more votes to show rating
add to favorites
×
Save as Personal and add changes to this tab that will be seen only by you. Learn more ›
×
You can save this tab as Personal to edit and correct it or add notes. All changes will be seen only by you. Learn more »
launch autoscroll
font size
0
reset
how to read this tab
guitar tuner
edit
Autoscroll
slow
fast
+/-
esc
set tempo
stop
Band – One Dead Three Wounded
Song – Ghosts
Album – Paint the Town
Tabbed By – Bryan H. & Ty B.


**I exported this from my song on Powertab™, so they add in a bunch of those ghost notes 
the parenthesis.  On the ghost notes, you simply just let the previous note in the 
keep ringing.


*Both guitars are tuned to Drop C (CGCFAD)


 Q=209
 4/4
  Gtr I
|-------------------|-------------------------|
|-------------------|-------------------------|
|-------------------|-------------------------|
|-0---2-(2)-3-(3)---|-----5-(5)-3-(3)-2-(2)-3-|
|-----------------3-|-(3)---------------------|
|-------------------|-------------------------|
|
| Gtr II
|-------------------|-------------------------|
|-------------------|-------------------------|
|-------------------|-------------------------|
|-------------------|-------------------------|
|-0-----------------|-(0)---------------------|
|-0-----------------|-(0)---------------------|


|--------------------|-----------------------------|
|--------------------|-----------------------------|
|--------------------|-----------------------------|
|--------------------|------10-(10)-8-(8)-7-(7)-8--|
|-5---7-(7)-8-(8)----|-----------------------------|
|-----------------10-|-(10)------------------------|
|
|--------------------|-----------------------------|
|--------------------|-----------------------------|
|--------------------|-----------------------------|
|--------------------|-----------------------------|
|-0------------------|--(0)------------------------|
|-0------------------|--(0)------------------------|


|----------------|-----------------------|------------------|----------------|
|----------------|-----------------------|------------------|----------------|
|----------------|-----------------------|------------------|----------------|
|----------8-7---|-----------------------|------------------|----------------|
|------7-8-----8-|---------7--8-10--8--7-|------8---7-(7)-8-|------7---8-8-8-|
|-8--8-----------|-10--10----------------|-8--8---8---------|-7--7---7-------|
|
|----------------|-----------------------|------------------|----------------|
|----------------|-----------------------|------------------|----------------|
|----------------|-----------------------|------------------|----------------|
|-8------------8-|-10-----------------10-|-8--------------8-|-7------------7-|
|-8--8-8-8-8-8-8-|-10--10-10-10-10-10-10-|-8--8-8-8-8--8--8-|-7--7-7-7-7-7-7-|
|-8--8-8-8-8-8-8-|-10--10-10-10-10-10-10-|-8--8-8-8-8--8--8-|-7--7-7-7-7-7-7-|


|-------------------------|-----------------------------------|
|-------------------------|-----------------------------------|
|-------------------------|-----------------------------------|
|-------------------------|-----------------------------------|
|-0----7--(7)--8--(8)--3--|--(3)-10--(10)--8--(8)--7--(7)--8--|
|-0---(0)-(0)-(0)-(0)-(0)-|--(0)-(0)--(0)-(0)-(0)-(0)-(0)-(0)-|
|
|-------------------------|-----------------------------------|
|-------------------------|-----------------------------------|
|-------------------------|-----------------------------------|
|-------------------------|-----------------------------------|
|-0----7--(7)--8--(8)-----|------10--(10)--8--(8)--7--(7)--8--|
|-0-------------------10--|-(10)------------------------------|


|-------------------------|----------------------------------|
|-------------------------|----------------------------------|
|-------------------------|----------------------------------|
|-------------------------|-----10--(10)--8--(8)--7--(7)--8--|
|-5----7--(7)--8--(8)--3--|-(3)------------------------------|
|-------------------------|----------------------------------|
|
|-------------------------|----------------------------------|
|-------------------------|----------------------------------|
|-------------------------|----------------------------------|
|-------------------------|-----10--(10)--8--(8)--7--(7)--8--|
|-0----7--(7)--8--(8)--3--|-(3)------------------------------|
|-0---(0)-(0)-(0)-(0)-(0)-|-(0)-(0)--(0)-(0)-(0)-(0)-(0)-(0)-|


|----------------|-----------------------|------------------|----------|
|----------------|-----------------------|------------------|----------|
|----------------|-----------------------|------------------|----------|
|-8--------8-7---|-10--------------------|-8----------------|-7--------|
|-8----8---------|-10------7--8-10--8--7-|-8----8---7-(7)-8-|-7--------|
|-8--8---8-----8-|-10--10----------------|-8--8---8---------|-7--------|
|
|----------------|-----------------------|------------------|----------|
|----------------|-----------------------|------------------|----------|
|----------------|-----------------------|------------------|----------|
|-8--8-8-8-8-8-8-|-10--10-10-10-10-10-10-|-8--8-8-8-8--8--8-|-7--------|
|-8--8-8-8-8-8-8-|-10--10-10-10-10-10-10-|-8--8-8-8-8--8--8-|-7--------|
|-8--8-8-8-8-8-8-|-10--10-10-10-10-10-10-|-8--8-8-8-8--8--8-|-7--------|


||-------------------|----------------------|
||o------------------|----------------------|
||-------------------|----------------------|
||-------------------|----------------------|
||o-0----8---7-(7)-8-|-10-----10----8-(8)-7-|
||--0--0---0---------|-10--10----10---------|
|
||-------------------|----------------------|
||o------------------|----------------------|
||-------------------|----------------------|
||-------------------|----------------------|
||o-5----8---7-----8-|--------10----8-----7-|
||-----0---0----0----|-10--10----10---10----|


                                       4x
|-------------------|------------------||
|-------------------|-----------------o||
|-------------------|------------------||
|------10---8-(8)-7-|------------------||
|-8-----------------|------10---8-10-8o||
|-8--8----8---------|-7--7----7--------||
|
|                                      4x
|-------------------|------------------||
|-------------------|-----------------o||
|-------------------|------------------||
|------10---8-----7-|------------------||
|-8--8----8----8----|-7----10---8-10-8o||
|-8--8----8----8----|-7--7----7--------||


 9/8                4/4
|------------------|------------------|----------------|-------------------|
|------------------|------------------|----------------|-------------------|
|------------------|------------------|----------------|-------------------|
|-0----------------|------------------|-0--------------|-------------------|
|-0--0-0-0-0-0-0-0-|-8---7---8-10-8-0-|-0--0-0-0-0-0-0-|-8---7---8-10-8-0--|
|-0--0-0-0-0-0-0-0-|---0---0--------0-|-0--0-0-0-0-0-0-|---0---0--------0--|
|
|------------------|------------------|----------------|-------------------|
|------------------|------------------|----------------|-------------------|
|------------------|------------------|----------------|-------------------|
|-0----------------|------------------|-0--------------|-------------------|
|-0--0-0-0-0-0-0-0-|-8---7---8-10-8-0-|-0--0-0-0-0-0-0-|-8---7---8-10-8-0--|
|-0--0-0-0-0-0-0-0-|---0---0--------0-|-0--0-0-0-0-0-0-|---0---0--------0--|


|----------------|-------------------|----------------|-----------------|
|----------------|-------------------|----------------|-----------------|
|----------------|-------------------|----------------|-----------------|
|-5--------------|---------5-7-(7)---|-3--------------|-----------------|
|-5--5-5-5-5-5-5-|-5-5-5-5-----------|-3--3-3-3-3-3-3-|-5---7---7-8-7-5-|
|-5--5-5-5-5-5-5-|-5-5-5-5-----------|-3--3-3-3-3-3-3-|---0---0---------|
|
|----------------|-------------------|----------------|-----------------|
|----------------|-------------------|----------------|-----------------|
|----------------|-------------------|----------------|-----------------|
|-5--------------|-------------------|-3--------------|-----------------|
|-5--5-5-5-5-5-5-|-5-5-5-5-7-8-------|-3--3-3-3-3-3-3-|-5---7---7-8-7-5-|
|-5--5-5-5-5-5-5-|-5-5-5-5------0--0-|-3--3-3-3-3-3-3-|---0---0---------|


  Gtrs I, II
|----------------|------------------|----------------|------------------|
|----------------|------------------|----------------|------------------|
|----------------|------------------|----------------|------------------|
|-0--------------|------------------|-0--------------|------------------|
|-0--0-0-0-0-0-0-|-8---7---8-10-8-0-|-0--0-0-0-0-0-0-|-8---7---8-10-8-0-|
|-0--0-0-0-0-0-0-|---0---0--------0-|-0--0-0-0-0-0-0-|---0---0--------0-|


  Gtr I
|----------------|-------------------|----------------|-----------------|
|----------------|-------------------|----------------|-----------------|
|----------------|-------------------|----------------|-----------------|
|-5--------------|---------5-7-(7)---|-3--------------|-----------------|
|-5--5-5-5-5-5-5-|-5-5-5-5-----------|-3--3-3-3-3-3-3-|-5---7---7-8-7-5-|
|-5--5-5-5-5-5-5-|-5-5-5-5-----------|-3--3-3-3-3-3-3-|---0---0---------|
|
| Gtr II
|----------------|-------------------|----------------|-----------------|
|----------------|-------------------|----------------|-----------------|
|----------------|-------------------|----------------|-----------------|
|-5--------------|-------------------|-3--------------|-----------------|
|-5--5-5-5-5-5-5-|-5-5-5-5-7-8-------|-3--3-3-3-3-3-3-|-5---7---7-8-7-5-|
|-5--5-5-5-5-5-5-|-5-5-5-5------0--0-|-3--3-3-3-3-3-3-|---0---0---------|


  Gtrs I, II
|-----------------|-----------------|
|-----------------|-----------------|
|-----------------|-----------------|
|-----------------|-----------------|
|-5---7---7-8-7-5-|-5---7---7-8-7-5-|
|---0---0---------|---0---0---------|


                   6/8
|-----------------|-----------|-------------|
|-----------------|-----------|-------------|
|-----------------|-----------|-------------|
|-----------------|-----------|-------------|
|-5---7---7-8-7-5-|------7--8-|-(8)----8--7-|
|---0---0---------|-0--0------|------0------|


|--------------|-------------|-----------|
|--------------|-------------|-----------|
|--------------|-------------|-----------|
|--------------|-------------|-----------|
|-(7)----7-8-7-|-------5-7-5-|------7--8-|
|------0-------|-0-0-0-------|-0--0------|


|-------------|--------------|-------------|
|-------------|--------------|-------------|
|-------------|--------------|-------------|
|-------------|--------------|-------------|
|-(8)----8--7-|-(7)----7-8-7-|-------5-7-5-|
|------0------|------0-------|-0-0-0-------|


|-----------|-------------|--------------|
|-----------|-------------|--------------|
|-----------|-------------|--------------|
|-----------|-------------|--------------|
|------7--8-|-(8)----8--7-|-(7)----7-8-7-|
|-0--0------|------0------|------0-------|


|-------------|------------|---------------|
|-------------|------------|---------------|
|-------------|------------|---------------|
|-------------|------9--10-|-(10)----10--9-|
|-------5-7-5-|------7---8-|--(8)-----8--7-|
|-0-0-0-------|-0--0-------|-------0-------|


|---------------|-------------|------------|
|---------------|-------------|------------|
|---------------|-------------|------------|
|-(9)----9-10-9-|-------7-9-7-|------9--10-|
|-(7)----7--8-7-|-------5-7-5-|------7---8-|
|------0--------|-0-0-0-------|-0--0-------|


|---------------|---------------|-------------|
|---------------|---------------|-------------|
|---------------|---------------|-------------|
|-(10)----10--9-|-(9)----9-10-9-|-------7-9-7-|
|--(8)-----8--7-|-(7)----7--8-7-|-------5-7-5-|
|-------0-------|------0--------|-0-0-0-------|


  Gtr I
|------------|----------------|-----------------|
|------8---6-|--(6)-----6---5-|--(5)------------|
|------------|----------------|-----------------|
|------5---3-|--(3)-----3---2-|--(2)-----2-3--2-|
|------------|----------------|-----------------|
|-0--0-------|-------0--------|-------0---------|
|
| Gtr II
|------------|----------------|-----------------|
|------------|----------------|-----------------|
|------9--10-|-(10)----10--12-|-(12)----12---14-|
|------------|----------------|-----------------|
|------7---8-|--(8)-----8--10-|-(10)----10---12-|
|-0--0-------|-------0--------|-------0---------|


|-------------|------------|----------------|
|-------------|------8---6-|--(6)-----6---5-|
|-------------|------------|----------------|
|-------0-2-0-|------5---3-|--(3)-----3---2-|
|-------------|------------|----------------|
|-0-0-0-------|-0--0-------|-------0--------|
|
|-------------|------------|----------------|
|-------------|------------|----------------|
|-------------|------9--10-|-(10)----10--12-|
|-------------|------------|----------------|
|-------5-7-5-|------7---8-|--(8)-----8--10-|
|-0-0-0-------|-0--0-------|-------0--------|


                                 Q=152
                                4/4
|----------------|-------------|--------------|--------------|-------------|
|-(5)------------|-------------|--------------|--------------|-------1-----|
|----------------|-------------|--------------|--------------|----------3--|
|-(2)-----2-3--2-|-------0-2-0-|-------2---3--|-----3--2-----|-2--3--------|
|----------------|-------------|--------------|--------------|-------------|
|------0---------|-0-0-0-------|-0--0---------|-0---------0--|-------------|
|
|----------------|-------------|--------------|--------------|-------------|
|----------------|-------------|--------------|--------------|-------------|
|-12-----12---14-|-------------|--------------|--------------|-------------|
|----------------|-------------|-------9--10--|----10--9-----|-------7--5--|
|-10-----10---12-|-------5-7-5-|-------7---8--|-----8--7-----|-7--8--------|
|------0---------|-0-0-0-------|-0--0---------|-0---------0--|-------------|


                Q=140
|-------------|----------|-----------|
|-------------|----------|-----------|
|-2--3--2--0--|----------|-----------|
|-------------|-2--------|-----------|
|-------------|-0--------|-5----3----|
|-------------|----------|-5----3----|
|
|-------------|----------|-----------|
|-------------|----------|-----------|
|-------------|----------|-----------|
|-3--5--3--2--|-2--------|-----------|
|-------------|-0--------|-5----3----|
|-------------|----------|-5----3----|


|---------------------------|---------------------------|------|
|---------------------------|---------------------------|------|
|---------------------------|---------------------------|-2----|
|---------------------------|---------------------------|-0----|
|-0-0-0-0--0-0-0-0-0-0--0-0-|-0-0-0-0--0-0-0-0-0-0--0-0-|------|
|-0-0-0-0--0-0-0-0-0-0--0-0-|-0-0-0-0--0-0-0-0-0-0--0-0-|------|
|
|---------------------------|---------------------------|------|
|---------------------------|---------------------------|------|
|---------------------------|---------------------------|------|
|---------------------------|---------------------------|-2----|
|-0-0-0-0--0-0-0-0-0-0--0-0-|-0-0-0-0--0-0-0-0-0-0--0-0-|-0----|
|-0-0-0-0--0-0-0-0-0-0--0-0-|-0-0-0-0--0-0-0-0-0-0--0-0-|------|


|-----------|---------------------------|----------------------------|
|-----------|---------------------------|----------------------------|
|------5----|---------------------------|----------------------------|
|-5----3----|---------------------------|----------------------------|
|-3---------|-0-0-0-0--0-0-0-0-0-0--0-0-|-0-0-0-0--0-0-0-0-0-0--0-0--|
|-----------|-0-0-0-0--0-0-0-0-0-0--0-0-|-0-0-0-0--0-0-0-0-0-0--0-0--|
|
|-----------|---------------------------|----------------------------|
|-----------|---------------------------|----------------------------|
|-----------|---------------------------|----------------------------|
|-----------|---------------------------|----------------------------|
|-5----3----|-0-0-0-0--0-0-0-0-0-0--0-0-|-0-0-0-0--0-0-0-0-0-0--0-0--|
|-5----3----|-0-0-0-0--0-0-0-0-0-0--0-0-|-0-0-0-0--0-0-0-0-0-0--0-0--|


|----------|-----------|---------------------------|
|----------|-----------|---------------------------|
|-2--------|------5----|---------------------------|
|-0--------|-5----3----|---------------------------|
|----------|-3---------|-0-0-0-0--0-0-0-0-0-0--0-0-|
|----------|-----------|-0-0-0-0--0-0-0-0-0-0--0-0-|
|
|----------|-----------|---------------------------|
|----------|-----------|---------------------------|
|----------|-----------|---------------------------|
|-2--------|-----------|---------------------------|
|-0--------|-5----3----|-0-0-0-0--0-0-0-0-0-0--0-0-|
|----------|-5----3----|-0-0-0-0--0-0-0-0-0-0--0-0-|


|---------------------------|----------|-----------|
|---------------------------|----------|-----------|
|---------------------------|-2--------|------5----|
|---------------------------|-0--------|-5----3----|
|-0-0-0-0--0-0-0-0-0-0--0-0-|----------|-3---------|
|-0-0-0-0--0-0-0-0-0-0--0-0-|----------|-----------|
|
|---------------------------|----------|-----------|
|---------------------------|----------|-----------|
|---------------------------|----------|-----------|
|---------------------------|-2--------|-----------|
|-0-0-0-0--0-0-0-0-0-0--0-0-|-0--------|-5----3----|
|-0-0-0-0--0-0-0-0-0-0--0-0-|----------|-5----3----|


  Gtrs I, II
|---------------------------|---------------------------|
|---------------------------|---------------------------|
|---------------------------|---------------------------|
|---------------------------|---------------------------|
|-0-0-0-0--0-0-0-0-0-0--0-0-|-0-0-0-0--0-0-0-0-0-0--0-0-|
|-0-0-0-0--0-0-0-0-0-0--0-0-|-0-0-0-0--0-0-0-0-0-0--0-0-|


|---------------------------|---------------------------|------|
|---------------------------|---------------------------|------|
|---------------------------|---------------------------|------|
|---------------------------|---------------------------|------|
|-0-0-0-0--0-0-0-0-0-0--0-0-|-0-0-0-0--0-0-0-0-0-0--0-0-|-0----|
|-0-0-0-0--0-0-0-0-0-0--0-0-|-0-0-0-0--0-0-0-0-0-0--0-0-|-0----|


  Gtr I
|-------------------------|----------|---------------------------|
|-------------------------|----------|---------------------------|
|-------------------------|----------|---------------------------|
|-1-0---------------------|----------|---------------------------|
|-----3-5-3-1-3-1-0-0-----|-0--------|--6-5-3-5-3-1-3-1-0-0------|
|---------------------2-5-|-0--------|----------------------2-5--|
|
| Gtr II
|-------------------------|----------|---------------------------|
|-------------------------|----------|---------------------------|
|-------------------------|----------|---------------------------|
|-5-3-2-3-2-0-2-0---------|----------|---------------------------|
|-----------------3-5---8-|-0--------|-10-8-7-8-7-5-7-5-3-5---8--|
|---------------------7---|-0--------|----------------------7----|


|----------|--------------------------|------|
|----------|--------------------------|------|
|----------|--------------------------|------|
|----------|--------------------------|------|
|-0--------|--6-5-3-5-3-1-3-1-0-0-----|-0----|
|-0--------|----------------------2-5-|-0----|
|
|----------|--------------------------|------|
|----------|--------------------------|------|
|----------|--------------------------|------|
|----------|--------------------------|------|
|-0--------|-10-8-7-8-7-5-7-5-3-5---8-|-0----|
|-0--------|----------------------7---|-0----|


|----------------------------|----------------|
|----------------------------|----------------|
|----------------------------|----------------|
|----------------------------|----------------|
|--6-5-3-5-3-1-3-1-0-0-------|----5-----------|
|----------------------2-[5]-|-0----6-5-3-6-5-|
|
|----------------------------|----------------|
|----------------------------|----------------|
|----------------------------|----------------|
|----------------------------|----------------|
|-10-8-7-8-7-5-7-5-3-5---[3]-|----5-----------|
|----------------------7-----|-0----6-5-3-6-5-|


|-----------------|------------------|
|-----------------|------------------|
|-----------------|------------------|
|-----------------|------------------|
|----------3-5-5--|----5-------------|
|-(5)--3-5--------|-0----6-5-3-6-5---|
|
|-----------------|------------------|
|-----------------|------------------|
|-----------------|------------------|
|-----------------|------------------|
|----------3-5-5--|----5-------------|
|-(5)--3-5--------|-0----6-5-3-6-5---|


  Gtrs I, II
|-----------------|----------------|-----------------|----------------|
|-----------------|----------------|-----------------|----------------|
|-----------------|----------------|-----------------|----------------|
|-----------------|----------------|-----------------|----------------|
|-----------------|----5-----------|----------3-5-5--|----5-----------|
|-(5)--3-5-3-0-3--|-0----6-5-3-6-5-|-(5)--3-5--------|-0----6-5-3-6-5-|


|-----------------|----------------|-----------------|----------------|
|-----------------|----------------|-----------------|----------------|
|-----------------|----------------|-----------------|----------------|
|-----------------|----------------|-----------------|----------------|
|-----------------|----5-----------|----------3-5-5--|----5-----------|
|-(5)--3-5-3-0-3--|-0----6-5-3-6-5-|-(5)--3-5--------|-0----6-5-3-6-5-|


|-----------------|----------------|-----------------|----------------|
|-----------------|----------------|-----------------|----------------|
|-----------------|----------------|-----------------|----------------|
|-----------------|----------------|-----------------|----------------|
|-----------------|----5-----------|----------3-5-5--|----5---------5-|
|-(5)--3-5-3-0-3--|-0----6-5-3-6-5-|-(5)--3-5--------|-0----6-5-3-6-5-|


|-----------------|-----------------|-------------------|-----------------|
|-----------------|-----------------|-------------------|-----------------|
|-----------------|-----------------|-------------------|-----------------|
|-----------------|-----------------|-------------------|-----------------|
|-(5)--3-5-3-0-3--|-5---3---------5-|-(5)---3-----------|-5---3-----------|
|-(5)--3-5-3-0-3--|---0---0-5-0-3---|-----0---0-5-0-3-0-|---0---0-5-0-3-0-|


  Gtr I
|----------------|-----------------|-------------------|-----------------|
|----------------|-----------------|-------------------|-----------------|
|----------------|-----------------|-------------------|-----------------|
|----------------|-----------------|-------------------|-----------------|
|-------5-(5)----|-5---3---------5-|-(5)---3-----------|-5---3-----------|
|-3b5r===========|===0---0-5-0-3---|-----0---0-5-0-3-0-|---0---0-5-0-3-0-|
|
| Gtr II
|----------------|-----------------|-------------------|-----------------|
|----------------|-----------------|-------------------|-----------------|
|----------------|-----------------|-------------------|-----------------|
|----------------|-----------------|-------------------|-----------------|
|----------------|-5---3---------5-|-(5)---3-----------|-5---3-----------|
|-3b5r==0-(0)----|---0---0-5-0-3---|-----0---0-5-0-3-0-|---0---0-5-0-3-0-|


|----------------|------------|------------|-----------|--------*|
|----------------|------------|------------|-----------|--------*|
|-------2-(2)----|-(2)--------|-(2)--------|-(2)-------|-(2)----*|
|-------0-(0)----|-(0)--------|-(0)--------|-(0)-------|-(0)----*|
|----------------|------------|------------|-----------|--------*|
|-3b5r===========|============|============|===========|========*|
|
|----------------|------------|------------|-----------|--------*|
|----------------|------------|------------|-----------|--------*|
|----------------|------------|------------|-----------|--------*|
|----------------|------------|------------|-----------|--------*|
|----------------|------------|------------|-----------|--------*|
|-3b5r==0-(0)----|-(0)--------|-(0)--------|-(0)-------|-(0)----*|


Tablature Legend
----------------
 h   - hammer-on
 p   - pull-off
 b   - bend
 pb  - pre-bend
 r   - bend release (if no number after the r, then release immediately)
 /\  - slide into or out of (from/to "nowhere")
 s   - legato slide
 S   - shift slide
  - natural harmonic
[n]  - artificial harmonic
n(n) - tapped harmonic
 ~   - vibrato
 tr  - trill
 T   - tap
 TP  - trem. picking
 PM  - palm muting
\n/  - tremolo bar dip; n = amount to dip
 \n  - tremolo bar down
 n/  - tremolo bar up
/n\  - tremolo bar inverted dip
 =   - hold bend; also acts as connecting device for hammers/pulls
 <>  - volume swell (louder/softer)
 x   - on rhythm slash represents muted slash
 o   - on rhythm slash represents single note slash

Misc Legend
-----------
 |  - bar
||  - double bar
||o - repeat start
o|| - repeat end
*|  - double bar (ending)
 :  - bar (freetime)
 $  - Segno
 &  - Coda
Tempo markers -  = BPM(8/16=s8/s16), where s8 = swing 8ths, s16 = swing 16ths
Suggest correction
Creating personal tab
Creating personal tab
You can edit any tab online and save it as your Personal.

You can edit, replace or remove any tab part or add personal notes – all changes will be seen only by you.

Personal tabs can be accessed anytime from any device, even offline.
Learn more »
Give kudos to tab author, rate the tab!
1 2 3 4 5
comments
print report bad tab
guest
You may want to rate the tab now too:
select rating
Wanna post a correction for this tab? Suggest correction