Oops, an error
Loading. Please wait.

18 tab

version 3
version 3

Whole song

  • This version shows the fingerpicking at the intro ... Show more
580 views 15 this week
no commentswrite comment
1 2 3 4 5
3 more votes to show rating
add to favorites
×
Save as Personal and add changes to this tab that will be seen only by you. Learn more ›
×
You can save this tab as Personal to edit and correct it or add notes. All changes will be seen only by you. Learn more »
launch autoscroll
font size
0
reset
how to read this tab
guitar tuner
edit
Autoscroll
slow
fast
+/-
esc
set tempo
stop
About this tab version
This version shows the fingerpicking at the intro also in the verse. It also included the stumming patterns that are needed. Was this info helpful? Yes No
Capo on 2
Standard Tuning
(*= 1 strum)

Watch the tutorial here: https://www.youtube.com/watch?v=Rwq7abRzT54

[Intro] (It can also be played by G, Em, C, G)

e|---------------------------------------------------------------------------|
B|--0-0------0-0------0-0------0-0------0-0------0-0------0-0------0---------|
G|--0-0-2----0-0-2----0-0-2----0-0-2----0-0-2----0-0-2----0-0-2----0---------|
D|--0-0-0----0-0-0----2-2-2----2-2-2----------------------0-0-0----0---------|
A|--------------------------------------3-3-3----3-3-3-----------------------|
E|---------------------------------------------------------------------------|

[Verse]

e|---------------------------------------------------------------------------|
B|--0-0------0-0------0-0------0-0------0-0------0-0------0-0------0-0-------|
G|--0-0-2----0-0-2----0-0-2----0-0-2----0-0-2----0-0-2----0-0-2----0-0-2-----|
D|--0-0-0----0-0-0----2-2-2----2-2-2----------------------0-0-0----0-0-0-----|
A|--------------------------------------3-3-3----3-3-3-----------------------|
E|---------------------------------------------------------------------------|
  I got a heart and I got a soul Believe me I will use them both

e|---------------------------------------------------------------------------|
B|--0-0------0-0------0-0------0-0------0-0------0-0------0-0------0-0-------|
G|--0-0-2----0-0-2----0-0-2----0-0-2----0-0-2----0-0-2----0-0-2----0-0-2-----|
D|--0-0-0----0-0-0----2-2-2----2-2-2----------------------0-0-0----0-0-0-----|
A|--------------------------------------3-3-3----3-3-3-----------------------|
E|---------------------------------------------------------------------------|
   We made a start Be it a false one, I know Baby, I don’t want to feel alone

[Pre-Chorus] (Strumming: 8x Down)

   D               C            D                   C
So kiss me where I lay down, my hands press to your cheeks
  D                 C         
A long way from the playground

[Chorus] (Strumming: DDDDDDDDDU)

G                C                 Em    D
I have loved you since we were 18
G              C                          Em       
Long before we both thought the same thing
      D                   G
To be loved, to be in love
          C                    Em                    D               G
All I can do is say that these arms were made for holding you, oho-oho
        C             Em           
I wanna love like you made me feel
D                G
When we were 18

[Verse] (Strumming: DDDDDDDDDU)

          G
We took a chance
             Em
God knows we tried
    C                         G
Yet all along, I knew we’d be fine

        G
So pour me a drink, oh love
                Em                            C
Let’s split the night wide open and we’ll see everything we can 
                      G
Live in love and slow motion, motion, motion

[Repeat Pre-Chorus]

[Chorus]

G                C                 Em    D
I have loved you since we were 18
G              C                          Em       
Long before we both thought the same thing
      D                   G
To be loved, to be in love
          C                    Em                    D               G
All I can do is say that these arms were made for holding you, oho-oho
        C             Em           
I wanna love like you made me feel
D              G  C  G
When we were 18
D              Em C   
When we were 18
   G     D
Oh lord, when we were 18

[Repeat Pre-Chorus]

[Chorus/Ending] 

(Chords with * will be played like this:

    G*       C*        Em*
e|--3--|  e|--x--|  e|--0--|
B|--2--|  B|--2--|  B|--2--|
G|--0--|  G|--3--|  G|--2--|
D|--0--|  D|--0--|  D|--0--|
A|--x--|  A|--x--|  A|--x--|
E|--x--|  E|--x--|  E|--x--|

Em*              C*              G*  
I have loved you since we were 18  
Em*            C*                         G (Strumming: DDDDDDDDU)       
Long before we both thought the same thing  
      D                   G
To be loved, to be in love
          C                    Em                    D               G
All I can do is say that these arms were made for holding you, oho-oho
        C             Em           
I wanna love like you made me feel
D              G 
When we were 18
        C             Em           
I wanna love like you made me feel
D              G 
When we were 18
        C             Em           
I wanna love like you made me feel
D               G*
When we were 18

************************************

| x   Dead note

************************************

            
            
Suggest correction
Creating personal tab
Creating personal tab
You can edit any tab online and save it as your Personal.

You can edit, replace or remove any tab part or add personal notes – all changes will be seen only by you.

Personal tabs can be accessed anytime from any device, even offline.
Learn more »
Give kudos to tab author, rate the tab!
1 2 3 4 5
comments
print report bad tab
guest
You may want to rate the tab now too:
select rating
Wanna post a correction for this tab? Suggest correction