Oops, an error
Loading. Please wait.

Back For You Tab

2,762 views 15 this week
no commentswrite comment
1 2 3 4 5
x 3
add to favorites
launch autoscroll
font size
0
reset
how to read this tab
guitar tuner
Autoscroll
slow
fast
+/-
esc
set tempo
stop
Help us to improve Ultimate-Guitar.com Take our survey!
×
Author
Difficulty
novice
-------------------------------------------------------------------------------
                             Back For You- One Direction
-------------------------------------------------------------------------------
Tabbed by: Jalen Chin
Standard Tuning
No capo

* = Harmonic
/ = Slide up
\ = Slide down


Intro: x1 
e|-----------------------------------------------------------------------------------|
B|-----------------------------------------------------------------------------------|
G|-----------------------------------------------------------------------------------|
D|-------5-5-7-7-------5-5-7-7-------5-5---------------------------------------------|
A|--5-5-----------5-5----------------------------9-9-10-10------9-9-10-10------------|
E|-------------------------------5-5--------7-7-------------7-7------------3-3-3-3---|

Second guitar plays this during the intro, verses, and break
e|-----------------------------------------------------------------------------------|
B|-----------------------------------------------------------------------------------|
G|-----------------------------------------------------------------------------------|
D|-----------------------------------------------------------------------------------|
A|--5-5-5-5-5-5-5-5-5-5-5-------------------2-2-2-2-2-2-2-2-2-2-2--------------------|
E|------------------------------5-5-5-5------------------------------------3-3-3-3---|


Verse 1: x4 
e|-----------------------------------------------------------------------------------|
B|-----------------------------------------------------------------------------------|
G|-----------------------------------------------------------------------------------|
D|-------5-5-7-7-------5-5-7-7-------5-5---------------------------------------------|
A|--5-5-----------5-5----------------------------9-9-10-10------9-9-10-10------------|
E|-------------------------------5-5--------7-7-------------7-7------------3-3-3-3---|


Chorus 1: x2 
e|-----------------------------------------------------------------------------------|
B|-----------------------------------------------------------------------------------|
G|--77-------------------------------------------------------------------------------|
D|--77---7--9---55---5--7---99---77---55---------------------------------------------|
A|--55---7--9---55---5--7---99---77---55-------------10-9-7-5------------------------|
E|-------5--7---33---3--5---77---55---33---------------------------------------------|

Break: x1 
e|-----------------------------------------------------------------------------------|
B|-----------------------------------------------------------------------------------|
G|-----------------------------------------------------------------------------------|
D|-------5-5-7-7------5-5-7-7---------5-5--------------------------------------------|
A|--5-5-----------5-5----------------------------------------------------------------|
E|--------------------------------5-5------------------------------------------------|


Verse 2: x4 
e|-----------------------------------------------------------------------------------|
B|-----------------------------------------------------------------------------------|
G|-----------------------------------------------------------------------------------|
D|-------5-5-7-7-------5-5-7-7-------5-5---------------------------------------------|
A|--5-5-----------5-5----------------------------9-9-10-10------9-9-10-10------------|
E|-------------------------------5-5--------7-7-------------7-7------------3-3-3-3---|

Chorus 2: x2
e|-----------------------------------------------------------------------------------|
B|-----------------------------------------------------------------------------------|
G|--77-------------------------------------------------------------------------------|
D|--77---7--9---55---5--7---99---77---55---------------------------------------------|
A|--55---7--9---55---5--7---99---77---55-------------10-9-7-5------------------------|
E|-------5--7---33---3--5---77---55---33---------------------------------------------|


Bridge: x1
e|-----------------------------------------------------------------------------------|
B|-----------------------------------------------------------------------------------|
G|--77-------------------------------------------------------------------------------|
D|--77---7--9---55---5--7---99---77---55---------------------------------------------|
A|--55---7--9---55---5--7---99---77---55-------------10-9-7-5------------------------|
E|-------5--7---33---3--5---77---55---33---------------------------------------------|

Second guitar plays this in the background 
e|-------0----------------------------------------------------------------0----------|
B|-----------------------------------------------------------------------------------|
G|--9-----------9-----9/10\9---x2------9-----*12------9-----*12------9---------------|
D|----10----10----10---------------------10-------10----10-------10----10---10-------|
A|-----------------------------------------------------------------------------------|
E|-----------------------------------------------------------------------------------|

Chorus 3: x4
e|-----------------------------------------------------------------------------------|
B|-----------------------------------------------------------------------------------|
G|--77-------------------------------------------------------------------------------|
D|--77---7--9---55---5--7---99---77---55---------------------------------------------|
A|--55---7--9---55---5--7---99---77---55-------------10-9-7-5------------------------|
E|-------5--7---33---3--5---77---55---33---------------------------------------------|


Second guitar plays this in the background 2 times after playing chorus 3 twice

e|-------0----------------------------------------------------------------0----------|
B|-----------------------------------------------------------------------------------|
G|--9-----------9-----9/10\9---x2------9-----*12------9-----*12------9---------------|
D|----10----10----10---------------------10-------10----10-------10----10---10-------|
A|-----------------------------------------------------------------------------------|
E|-----------------------------------------------------------------------------------|
Suggest correction
Give kudos to tab author, rate the tab!
1 2 3 4 5
comments
print report bad tab
guest
You may want to rate the tab now too:
select rating
Wanna post a correction for this tab? Suggest correction