Oops, an error
Loading. Please wait.

Best Song Ever Tab

version 1
version 1

Whole song

Interactive

9,333 views 39 this week
5 commentsread comments
1 2 3 4 5
x 16
add to favorites
launch autoscroll
font size
0
reset
how to read this tab
guitar tuner
Autoscroll
slow
fast
+/-
esc
set tempo
stop
Help us to improve Ultimate-Guitar.com Take our survey!
×
Author
[Verse]
( Maybe it's the way ... )
e|-4-2-1----------4-2-1---------1-|
B|------4-2-2-----------4-2-2-4---|
G|------------3-1-----------------|
D|--------------------------------| (x2)
A|--------------------------------|
E|--------------------------------|

[Pre-Chorus] 
(I said ... )
e|----------------------------------------|
B|-2-1---------------2-1----------------1-|
G|-----3-3-3-3-3-1--------3-3-3-3-3-1-3---|
D|-----------------1----------------------|
A|----------------------------------------|
E|----------------------------------------|

[Chorus] 
( And we danced ...)
e|-------------------1---|
B|-2-2-2-2-------4-4---4-|
G|---------3-3-1---------|
D|-----------------------| (x4)
A|-----------------------|
E|-----------------------|

( I think it went ... )
e|-----------1-----------4-----------1-----|
B|-2-2-2-2-2---2-2-2-2-4---4-2-2-2-2---2-1-|
G|-----------------------------------------|
D|-----------------------------------------|
A|-----------------------------------------|
E|-----------------------------------------|

e|-------|
B|-------|
G|-3-1---|
D|-------|
A|-------|
E|-------|

[Bridge] 
( You know, I know ...)
e|-1---1---1---------1-----|
B|---2---2---4-4-2-4---4-2-|
G|-------------------------| (x4)
D|-------------------------|
A|-------------------------|
E|-------------------------|
Suggest correction
comments
print report bad tab
5 comments total. Showing first comments.
-1 reply
nathanwarrick 14 May 20, 2015 05:45 AM

didn't like this contribution

0 reply
andrewlopez68 10 Jun 19, 2015 06:37 PM

i liked it its a pretty good melody tab

-1 reply
wsam932 10 Feb 20, 2016 02:37 PM

why are 1d fans so bad at tabbing?

guest
You may want to rate the tab now too:
select rating
Wanna post a correction for this tab? Suggest correction