Oops, an error
Loading. Please wait.

Does He Know Chords

version 2
version 2

Whole song

5,285 views 15 this week
no commentswrite comment
1 2 3 4 5
excellent!
x 4
add to favorites
launch autoscroll
font size
0
reset
transpose
0
reset
simplify chords
display chords
guitar tuner
Tab Pro tools
  • play this tab
  • loop segment
  • change instrument
  • show fretboard
  • metronome
×
Best way to learn
"Does He Know"
Autoscroll
slow
fast
+/-
esc
set tempo
stop
Contributor
Difficulty
intermediate
VERSE

He knows about you in every way
He's memorized every part of your face
Inside and out, baby, head to toe
Yeah, he knows everything there is to know

   G#        C#       slide to  Fm  

e|--X--------X-------------------X-------------------------------|
B|--X--------4-------------------9-------------------------------|
G|-13--------6-------------------10------------------------------|
D|-13--------6-------------------10------------------------------| x4
A|-11--------4-------------------8-------------------------------|
E|---------------------------------------------------------------|

PRECHORUS pt1

Your secret tattoo, the way you change moods
The songs that you sing when you're all alone

    Fm      D#      C#    C#   slide up to    Fm        Fm        D#   C#   D#  
 
e|--X-------X-------X-----X--------------------X---------X--------X-----X----X-------------|
B|--9-------X-------X-----X--------------------9---------9--------X-----X----X-------------|
G|--10------8-------6-----6--------------------10--------10-------8-----6----8-------------|
D|--10------8-------6-----6--------------------10--------10-------8-----6----8-------------|
A|--8-------6-------4-----4--------------------8---------8--------6-----4----6-------------|
E|--X-------X-------X-----X--------------------X---------X--------X-----X----X-------------|

PRECHORUS pt2

Your favorite band, and the way that you dance

    Fm     D#       C#     C#       Fm       

e|--X------X--------X-------X--------X-------------|
B|--9------X--------X-------X--------9-------------|
G|--10-----8--------6-------6--------10------------|
D|--10-----8--------6-------4--------10------------|
A|--8------6--------4-------4--------8-------------|
E|--X------X--------X-------X--------X-------------|

PRECHORUS pt3

But, baby, baby


    Fm slide to D#   twice
e|---X----------X---------X--------X--------|
B|---9----------X---------9--------X--------|
G|---10---------8---------10-------8--------|
D|---10---------8---------10-------8--------|
A|---8----------6---------8--------6--------|
E|---X----------X---------X--------X--------|

CHORUS

G#        D#           A#          D#
Does he know you can move it like that?
G#   D#  A#
Whoa-oh-oh-oh
G#                  D#         Cm          D#   
Does he know you're out and I want you so bad?
G#   D# A#
Whoa-oh-oh-oh
G# D# D#/D        G# D# Fm
Tonight you're mine, baby.
G#        D#               A#      D#
Does he know that you'll never go back?
G#   D# A#
Whoa-oh-oh-oh
          G#  D# Fm
Does he know?

VERSE (same as verse above)

I catch your eye then you turn away
But there's no hiding the smile on your face
Inside and out, baby, head to toe
He's not around, girl, you let me know

PRECHORUS (same as prechorus above; pt1, 2, 3)

Your secret tattoo, the way you change moods
The songs that you sing when you're all alone
He knows how you dance in front of your friends
But, baby, baby

CHORUS (same as chorus above)

Does he know you can move it like that?
Whoa-oh-oh-oh
Does he know you're out and I want you so bad?
Whoa-oh-oh-oh
Tonight you're mine, baby.
Does he know that you'll never go back?
Whoa-oh-oh-oh
Does he know?

BRIDGE

He'll never know
G#           D#            A#
The way you lie when you look at me
G#       D#             A#
So keep trying but you know I see
D#                           Cm              A#
All the little things that make you who you are
So tell me, girl

G#        D#          A#            D#          G#, D#, A#
Does he know you can move it like that (like that)?
G#        D#               A#       D#          G#, D#, A#
Does he know that you'll never go back (go back)?

CHORUS (same as chorus above)
comments
print report bad tab
I want to post or [tab]
guest
You may want to rate the tab now too:
select rating
Please do not post tabs as comments. Select "correction" instead!