Oops, an error
Loading. Please wait.

Drag Me Down tab

version 1
version 1

Whole song

Interactive

11,890 views 195 this week
2 commentsread comments
1 2 3 4 5
x 7
add to favorites
×
Save as Personal and add changes to this tab that will be seen only by you. Learn more ›
×
You can save this tab as Personal to edit and correct it or add notes. All changes will be seen only by you. Learn more »
launch autoscroll
font size
0
reset
how to read this tab
guitar tuner
edit
Autoscroll
slow
fast
+/-
esc
set tempo
stop
Author
Difficulty
[Verse 1: Harry]
I've got fire for a heart, I'm not scared of the dark
You've never seen it look so easy
I got a river for a soul, and baby you're a boat
Baby, you're my only reason

e|---------------------------------------------------------------------------------------------|
b|-------4------------4------------4-----------------------4-----------4---------4-------------|
g|-5-5-5---5-3-5--3-5---5-3-5--3-5---5-3-5-3-3-0---3-5-3-5---5-3-5-3-5---5-3-5--5--5-3-5-3-3-0-|
d|---------------------------------------------------------------------------------------------|
a|---------------------------------------------------------------------------------------------|
E|---------------------------------------------------------------------------------------------|
[Verse 2: Louis]
If I didn't have you there would be nothing left
The shell of a man who could never be his best
If I didn't have you, I'd never see the sun
You taught me how to be someone, yeah

e|---3-3-3-1--------------1-3--3-3-3-3-1---------1--------3-3-3-1--------------1-3-------------------------|
b|-1----------4-4-4-1-4-4----------------4-4-4-1---1-1--1----------4-4-4-1-4-4------1-3-3-3-3-3-1-1--4-1---|
g|-------------------------------------------------------------------------------------------------------3-|
d|---------------------------------------------------------------------------------------------------------|
a|---------------------------------------------------------------------------------------------------------|
E|---------------------------------------------------------------------------------------------------------|

[Chorus 1: Liam]
All my life, you stood by me when no one else was ever behind me
All these lights, they can't blind me
With your love, nobody can drag me down

e|-----------------------------------------------------------------------|
b|-----------------------------------------------------------------------|
g|-----0-------0---------0---------0-----1-------0---------0-------------|
d|---1-------1---1-3-1-3---3-1---1-----1-------1---1-3-1-3---3-1---1-3---|
a|-3-----3-3-------------------3-----3-----3-3-------------------1-----1-|
E|-----------------------------------------------------------------------|

[Chorus 2: Niall/ Group]
All my life, you stood by me when no one else was ever behind me
All these lights, they can't blind me
With your love, nobody can drag me down
Nobody, nobody
Nobody can drag me down
Nobody, nobody
Nobody can drag me down

e|-----1h3-------3---------3-1-4-----3-----3h4-------1-3---------3-1-------1---|-3-3-3-----1-3-1-------1---|
b|-1-4-----1-1-4---4-6-4-6-------1-4---1-4-----1-1-4-----4-6-4-6-----4-1-4---1-|-------4-4-------4-1-4---1-|
g|-----------------------------------------------------------------------------|---------------------------|x2
d|-----------------------------------------------------------------------------|---------------------------|
a|-----------------------------------------------------------------------------|---------------------------|
E|-----------------------------------------------------------------------------|---------------------------|

Ignore the exclamation marks, they are just a divider between the chorus and the nobody
nobody part, since you
play the chorus once, then the last part twice.

[Verse 3: Niall]
I've got fire for a heart, I'm not scared of the dark
You've never seen it look so easy
I got a river for a soul, and baby you're a boat
Baby you're my only reason

e|--------------------------------------------------------------------------------------------|
b|-------4------------4------------4-----------------------4-----------4--------4-------------|
g|-5-5-5---5-3-5--3-5---5-3-5--3-5---5-3-5-3-3-0---3-5-3-5---5-3-5-3-5---5-3--5---5-3-5-3-3-0-|
d|--------------------------------------------------------------------------------------------|
a|--------------------------------------------------------------------------------------------|
E|--------------------------------------------------------------------------------------------|

[Verse 4: Harry]
If I didn't have you there would be nothing left
The shell of a man who could never be his best
If I didn't have you I'd never see the sun
You taught me how to be someone, yeah

e|---3-3-3-1--------------1-3--3-3-3-3-1---------1--------3-3-3-1--------------1-3-------------------------|
b|-1----------4-4-4-1-4-4----------------4-4-4-1---1-1--1----------4-4-4-1-4-4------1-3-3-3-3-3-1-1--4-1---|
g|-------------------------------------------------------------------------------------------------------3-|
d|---------------------------------------------------------------------------------------------------------|
a|---------------------------------------------------------------------------------------------------------|
E|---------------------------------------------------------------------------------------------------------|

[Chorus 3: Group]
All my life you stood by me when no one else was ever behind me
All these lights, they can't blind me
With your love, nobody can drag me down
Nobody, nobody
Nobody can drag me down
Nobody, nobody
Nobody can drag me

e|-----1h3-------3---------3-1-4-----3-----3h4-------1h3---------3-1-------1---|-3-3-3-------3-1-------1--|
b|-1-4-----1-1-4---4-6-4-6-------1-4---1-4-----1-1-4-----4-6-4-6-----4-1-4---1-|-------4-4-1-----4-1-4---1|
g|-----------------------------------------------------------------------------|--------------------------|x2
d|-----------------------------------------------------------------------------|--------------------------|
a|-----------------------------------------------------------------------------|--------------------------|
E|-----------------------------------------------------------------------------|--------------------------|

When you play this, play the last part twice like in the first chorus, but on the second
time do not play the
last note, as Liam's next part covers it in the song. Listen to that part in the song
and you will understand

[Chorus 4: Liam]
All my life you stood by me when no one else was ever behind me
All these lights, they can't blind me
With your love, nobody can drag me down

e|-----------------------------------------------------------------------|
b|-----------------------------------------------------------------------|
g|-----0-------0---------0---------0-----1-------0---------0-------------|
d|---1-------1---1-3-1-3---3-1---1-----1-------1---1-3-1-3---3-1---1-3---|
a|-3-----3-3-------------------3-----3-----3-3-------------------1-----1-|
E|-----------------------------------------------------------------------|

[Chorus 5: Group]
All my life you stood by me when no one else was ever behind me
All these lights, they can't blind me
With your love, nobody can drag me down
Nobody, nobody
Nobody can drag me down
Nobody, nobody
Nobody can drag me down
Nobody, nobody
Nobody can drag me down
Nobody, nobody
Nobody can drag me down

e|-----1h3-------3---------3-1-4-----3-----3h4-------1h3---------3-1-------1---|-3-3-3-------3-1-------1--|
b|-1-4-----1-1-4---4-6-4-6-------1-4---1-4-----1-1-4-----4-6-4-6-----4-1-4---1-|-------4-4-1-----4-1-4---1|
g|-----------------------------------------------------------------------------|--------------------------|x2
d|-----------------------------------------------------------------------------|--------------------------|
a|-----------------------------------------------------------------------------|--------------------------|
E|-----------------------------------------------------------------------------|--------------------------|

High Notes

[Chorus 5: Group]
First "Nobody can drag me down"

e|-3-6-6-3-6-3-8-|
b|---------------|
g|---------------|
d|---------------|
a|---------------|
E|---------------|

Second "Nobody can drag me down"
e|-3-6-6-3-6-3-4-3-1---|
b|-------------------1-|
g|---------------------|
d|---------------------|
a|---------------------|
E|---------------------|

"Down"
e|-6-8-6-3-6-3-1-3-1---1-----------------------|
b|-------------------4---4-1-4-1---------------|
g|-------------------------------3-5-3-0-3-0-3-|
d|---------------------------------------------|
a|---------------------------------------------|
E|---------------------------------------------|
So there is 2 of the "nobody can drag me down" and 2 of the "down" high notes, to make
up the 4 you see in
chorus 5. Hope this helps if you were thinking of learning it| Have fun| :)))

Legend
******************************
h= hammer on
******************************
Suggest correction
Creating personal tab
Creating personal tab
You can edit any tab online and save it as your Personal.

You can edit, replace or remove any tab part or add personal notes – all changes will be seen only by you.

Personal tabs can be accessed anytime from any device, even offline.
Learn more »
comments
print report bad tab
2 comments total.
0 reply
elviralucero97 10 Nov 18, 2016 04:16 AM, edited at 09:16 am

hi ang galing po nito

guest
You may want to rate the tab now too:
select rating
Wanna post a correction for this tab? Suggest correction