Oops, an error
Loading. Please wait.

Half A Heart Tab

version 3
version 3

Whole song

Interactive

148 views 3 this week
no commentswrite comment
1 2 3 4 5
3 more votes to show rating
add to favorites
launch autoscroll
font size
0
reset
how to read this tab
guitar tuner
×
Best way to learn
"Half A Heart"
Autoscroll
slow
fast
+/-
esc
set tempo
stop
Author
Difficulty
Capo
  follow
intermediate
5th fret
About this tab version
They are slightly different chords. Was this info helpful? Yes No
Capo 5th Fret
Standard Tuning


[Intro]

         G (x2)
e|---------3----------|
B|---------3--3---3---|
G|--------------0-----|
D|------0-------------|
A|--------------------|
E|---3----------------|


[Verse]

         G (x2)            D/F# (x2)           Em (x2)             C (x2)
e|---------3-------------------------------------------------------------------|
B|---------3--3---3-----------3------------------0------------------1----------|
G|--------------0-------------0--0---0-----------0--0---0-----------0--0---0---|
D|------0------------------0-------0----------2-------2----------2-------2-----|
A|------------------------------------------------------------3----------------|
E|---3------------------2------------------0-----------------------------------|

         G (x2)            D/F# (x2)           Em (x2)             C
e|---------3-----------------------------------------------------------------------------------|
B|---------3--3---3-----------3------------------0------------------1--------------1-----------|
G|--------------0-------------0--0---0-----------0--0---0-----------0--0------------0--0---0---|
D|------0------------------0-------0----------2-------2----------2-------2-------2-------2-----|
A|------------------------------------------------------------3--------------3-----------------|
E|---3------------------2------------------0---------------------------------------------------|


[Pre-Chorus]

        Em (x2)          D (x2)       Dsus4 (x2)
e|-----------0--------------2--------------3------|
B|-----------0--0-----------3--3-----------3--3---|
G|--------------2--------2-----2--------2-----2---|
D|---2----------------0--------------0------------|
A|---0h2------------------------------------------|
E|---0----0---------------------------------------|


[Chorus]

         G (x2)              D/F# (x2)          Em (x2)               C
e|-----------3------------------2--------------------0----------------------------------------------|
B|-----------3--3---3-----------3--3---3-------------0----------------1------------------1----------|
G|----------------0-------------2----2------------------0---0---------0--0---0-----------0--0---0---|
D|-------------------------------------------2------------2---------2------2-----0h2--2-------2-----|
A|---0h2-------------------------------------0h2------------------3--------------3----3-------------|
E|---3----3---------------2--2---------------0----0-------------------------------------------------|

         G (x2)              D/F# (x2)          Em (x2)               C
e|-----------3------------------2--------------------0----------------------------------------------|
B|-----------3--3---3-----------3--3---3-------------0----------------1------------------1----------|
G|----------------0-------------2----2------------------0---0---------0--0---0-----------0--0---0---|
D|-------------------------------------------2------------2---------2------2-----0h2--2-------2-----|
A|---0h2-------------------------------------0h2------------------3--------------3----3-------------|
E|---3----3---------------2--2---------------0----0-------------------------------------------------|

         G (x2)
e|---------3----------|
B|---------3--3---3---|
G|--------------0-----|
D|------0-------------|
A|--------------------|
E|---3----------------|


(Repeat Verse, Pre-Chorus, and Chorus)


[Bridge]

D*                        Em7*        C*
  Though I try to get you out of my head               Counting on beats of 4
             G*     D*
The truth is I got lost without you                D,2,3,Em7  C,2,3,G  D,2,3,Em7
Em7*      C
And since then I've been waking up to                Final C strummed- DDDDDDDD


[Chorus]

         G (x2)              D/F# (x2)          Em (x2)               C
e|-----------3------------------2--------------------0----------------------------------------------|
B|-----------3--3---3-----------3--3---3-------------0----------------1------------------1----------|
G|----------------0-------------2----2------------------0---0---------0--0---0-----------0--0---0---|
D|-------------------------------------------2------------2---------2------2-----0h2--2-------2-----|
A|---0h2-------------------------------------0h2------------------3--------------3----3-------------|
E|---3----3---------------2--2---------------0----0-------------------------------------------------|

         G (x2)              D/F# (x2)          Em (x2)               C
e|-----------3------------------2--------------------0----------------------------------------------|
B|-----------3--3---3-----------3--3---3-------------0----------------1------------------1----------|
G|----------------0-------------2----2------------------0---0---------0--0---0-----------0--0---0---|
D|-------------------------------------------2------------2---------2------2-----0h2--2-------2-----|
A|---0h2-------------------------------------0h2------------------3--------------3----3-------------|
E|---3----3---------------2--2---------------0----0-------------------------------------------------|

End with single strum of C


************************************

|h   Hammer-on
|*   single strum

************************************
Suggest correction
Give kudos to tab author, rate the tab!
1 2 3 4 5
comments
print report bad tab
guest
You may want to rate the tab now too:
select rating
Wanna post a correction for this tab? Suggest correction