Oops, an error
Loading. Please wait.

Happily Tab

version 1
version 1

Whole song

39,152 views 63 this week
7 commentsread comments
1 2 3 4 5
excellent!
x 21
add to favorites
launch autoscroll
font size
0
reset
how to read this tab
guitar tuner
Autoscroll
slow
fast
+/-
esc
set tempo
stop
Help us to improve Ultimate-Guitar.com Take our survey!
×
Author
Here's the tab and chords are underneath

e|--------------------------------------------------------------------------|
B|--------------------------------------------------------------------------|
G|--------------------------------------------------------------------------|
D|--------------------------------------------------------------------------|
A|---------4------4--------4---------5---------0-------0--------0--------0--|
E|----5---------5-----5---------7---------2---------2------2---------2------|

[Verse 1]
A                                E    F#m     D
 You don't understand, you don't understand
A                           E        F#m    D
 What you do to me when you hold his hand
A                              E      F#m    D
 We were meant to be, but it's just a fade
A                     E    F#m    D
 Made it so we had to walk away
        A              E
 'Cause we're on fire, we're on on fire
F#m            D
 We're on fire now
        A             E
 Yeah, we're on fire, we're on on fire
F#m            D
 We're on fire now
 
(1, 2, 3)
 
[Chorus]
D                                        A
 I don't care what people say when we're together
     F#m                         E
 You know I wanna be the one who hold you when you sleep
        D                       A
 I just want it to be you and I forever
   F#m                             E
 I know you wanna leave so come on baby be with me so happily
 
[Verse 2]
      A                     E          F#m   D
 It's 4am, and I know that you're with him
   A                          E           F#m    D
 I wonder if he knows that I touched your skin
     A                        E     F#m    D
 And if he feels my traces in your hair
     A                       E     F#m   D
 I'm sorry love but I don't really care

        A              E
 'Cause we're on fire, we're on on fire
F#m             D
 We're on fire now
       A              E
 Yeah, we're on fire, we're on on fire
F#m            D
 We're on fire now
 
(1, 2, 3)
 
[Chorus]
D                                        A
 I don't care what people say when we're together
     F#m                         E
 You know I wanna be the one who hold you when you sleep
        D                       A
 I just want it to be you and I forever
   F#m                             E
 I know you wanna leave so come on baby be with me so happily

E   F#m    D
 
[Bridge]
(1, 2, 3)
A    
 Oh, oh, oh
E
 Oh, oh, oh
F#m            D
 We're on fire now
A
 Oh, oh, oh
E
 Oh, oh, oh
F#m            D
 We're on fire now
A
 Oh, oh, oh
E
 Oh, oh, oh
F#m            D
 We're on fire now
 
[Chorus]
D                                        A
 I don't care what people say when we're together
     F#m                         E
 You know I wanna be the one who hold you when you sleep
        D                       A
 I just want it to be you and I forever
   F#m                             E
 I know you wanna leave so come on baby be with me so happily
 
D                                        A
 I don't care what people say when we're together
     F#m                         E
 You know I wanna be the one who hold you when you sleep
        D                       A
 I just want it to be you and I forever
   F#m                             E
 I know you wanna leave so come on baby be with me so happily
Suggest correction
comments
print report bad tab
7 comments total. Showing first comments.
0 reply
mwarmerdam 74 wrote on November 30 2013, 08:03 am

There are some F#m chords missing in the chorus, but apart from that it's perfect!

+4 reply
ashpada 102 wrote on December 30 2013, 08:42 pm

with the tab at the beginning..i think it sounds like this with 7&5 on low strings rather than 4&4?? this is how i hear it anyway.. great tab otherwise :)

e|--------------------------------------------------------------------------|
B|--------------------------------------------------------------------------|
G|--------------------------------------------------------------------------|
D|--------------------------------------------------------------------------|
A|---------4------4--------4---------5---------0-------0--------0--------0--|
E|----5---------5-----5---------7---------2---------2------2---------2------|

+3 reply
ashpada 102 wrote on December 30 2013, 09:10 pm

and sorry one more thing..i won't post any more corrections after this.. :P
in the last 4 lines of the verses where the lyrics are 'we're on fire...etc', the tab goes higher and this it what it sounds like to me incase anyone is interested :)

e|--------------------------------------------------------------------------|?
B|--------------------------------------------------------------------------|?
G|---------6------6--------6---------7---------2-------2--------2--------2--|?
D|----7---------7-----7---------9---------4---------4------4---------4------|?
A|--------------------------------------------------------------------------|?
E|--------------------------------------------------------------------------|

guest
You may want to rate the tab now too:
select rating
Please do not post tabs as comments. Select "correction" instead!