Oops, an error
Loading. Please wait.

Happily Tab

version 3
version 3

Whole song

916 views 1 this week
no commentswrite comment
1 2 3 4 5
please rate
add to favorites
launch autoscroll
font size
0
reset
how to read this tab
guitar tuner
Tab Pro tools
  • play this tab
  • loop segment
  • change instrument
  • show fretboard
  • metronome
×
Best way to learn
"Happily"
Autoscroll
slow
fast
+/-
esc
set tempo
stop
Contributor
Difficulty
Capo
novice
2nd fret
-------------------------------------------------------------------------------
                             HAPPILY - One Direction
-------------------------------------------------------------------------------
Tabbed by: Georgia
Thanks to 13anna13
(http://tabs.ultimate-guitar.com/o/one_direction/happily_crd.htm)
and lanahoran
(http://tabs.ultimate-guitar.com/o/one_direction/happily_tab.htm)
for their work
Capo on 2nd :)
Tuning: Standard
Intro: 
e|---------------------------------------------------------------------------|
B|---------------------------------------------------------------------------|
G|---------------------------------------------------------------------------|
D|---------------------------------------------------------------------------| 
A|-------2-------2-------2----0---3------------------------------------------|
E|---3-------3-------3---------------0---3----0----3---0----3---0----3-------| Repeat times 2
Verse 1/Prechorus:
e|---------------------------------------------------------------------------|
B|---------------------------------------------------------------------------|
G|---------------------------------------------------------------------------|
D|---------------------------------------------------------------------------| 
A|-------2-------2-------2----0---3------------------------------------------|
E|---3-------3-------3---------------0---3----0----3---0----3---0----3-------|
You don't understand, you don't understand
e|---------------------------------------------------------------------------|
B|---------------------------------------------------------------------------|
G|---------------------------------------------------------------------------|
D|---------------------------------------------------------------------------| 
A|-------2-------2-------2----0---3------------------------------------------|
E|---3-------3-------3---------------0---3----0----3---0----3---0----3-------|
What you do to me when you hold his hand
e|---------------------------------------------------------------------------|
B|---------------------------------------------------------------------------|
G|---------------------------------------------------------------------------|
D|---------------------------------------------------------------------------| 
A|-------2-------2-------2----0---3------------------------------------------|
E|---3-------3-------3---------------0---3----0----3---0----3---0----3-------|
We were meant to be, but a twist of fate
e|---------------------------------------------------------------------------|
B|---------------------------------------------------------------------------|
G|---------------------------------------------------------------------------|
D|---------------------------------------------------------------------------| 
A|-------2-------2-------2----0---3------------------------------------------|
E|---3-------3-------3---------------0---3----0----3---0----3---0----3-------|
Made it so we had to walk away
e|---------------------------------------------------------------------------|
B|---------------------------------------------------------------------------|
G|---------------------------------------------------------------------------|
D|---------------------------------------------------------------------------| 
A|-------2-------2-------2----0---3------------------------------------------|
E|---3-------3-------3---------------0---3----0----3---0----3---0----3-------|
'Cause we're on fire, we're on on fire
e|---------------------------------------------------------------------------|
B|---------------------------------------------------------------------------|
G|---------------------------------------------------------------------------|
D|---------------------------------------------------------------------------| 
A|-------2-------2-------2----0---3------------------------------------------|
E|---3-------3-------3---------------0---3----0----3---0----3---0----3-------|
We're on fire now
e|---------------------------------------------------------------------------|
B|---------------------------------------------------------------------------|
G|---------------------------------------------------------------------------|
D|---------------------------------------------------------------------------| 
A|-------2-------2-------2----0---3------------------------------------------|
E|---3-------3-------3---------------0---3----0----3---0----3---0----3-------|
Yeah, we're on fire, we're on on fire
e|---------------------------------------------------------------------------|
B|---------------------------------------------------------------------------|
G|---------------------------------------------------------------------------|
D|---------------------------------------------------------------------------| 
A|-------2-------2-------2----0---3------------------------------------------|
E|---3-------3-------3---------------0---3----0----3---0----3---0----3-------|
We're on fire now
Chorus:
         C                                G
I don't care what people say when we're together
    D                           Em
You know I wanna be the one who holds you when you sleep
        C                         G
I just want it to be you and I forever
  D                               D*                             (*strum once)
I know you wanna leave so come on baby be with me so happily
e|---------------------------------------------------------------------------|
B|---------------------------------------------------------------------------|
G|---------------------------------------------------------------------------|
D|---------------------------------------------------------------------------| 
A|-------2-------2-------2----0---3------------------------------------------|
E|---3-------3-------3---------------0---3----0----3---0----3---0----3-------| once
Verse 2:
(same tab as for verse 1)
It's 4am, and I know that you're with him
I wonder if he knows that I touched your skin
And if he feels my traces in your hair
I'm sorry love but I don't really care
'Cause we're on fire, we're on on fire
We're on fire now
Yeah, we're on fire, we're on on fire
We're on fire now
Chorus:
         C                                G
I don't care what people say when we're together
    D                           Em
You know I wanna be the one who holds you when you sleep
        C                         G
I just want it to be you and I forever
  D                               D
I know you wanna leave so come on baby be with me so happily   
G   D   Em   C
[Bridge]
G
Oh, oh, oh
D
Oh, oh, oh
Em            C
We're on fire now
G
Oh, oh, oh
D
Oh, oh, oh
Em            C
We're on fire now (we're on fire)
G
Oh, oh, oh (hey, hey, hey)
D
Oh, oh, oh (hey, hey, hey)
Em            C*       (*strum once)
We're on fire now
Chorus:
         C                                G
I don't care what people say when we're together
    D                           Em
You know I wanna be the one who holds you when you sleep
        C                         G
I just want it to be you and I forever
  D                               D
I know you wanna leave so come on baby be with me so happily   
         C                                G
I don't care what people say when we're together
    D                           Em
You know I wanna be the one who holds you when you sleep
        C                         G
I just want it to be you and I forever
  D                               D*                             (*strum once)
I know you wanna leave so come on baby be with me so happily   
comments
We did not receive enough feedback on this tab! Please rate:
print report bad tab
1 2 3 4 5
I want to post or [tab]
guest
You may want to rate the tab now too:
select rating
Please do not post tabs as comments. Select "correction" instead!