Oops, an error
Loading. Please wait.

Happily tab

version 4
version 4

Whole song

109 views 1 this week
no commentswrite comment
1 2 3 4 5
3 more votes to show rating
add to favorites
×
Save as Personal and add changes to this tab that will be seen only by you. Learn more ›
×
You can save this tab as Personal to edit and correct it or add notes. All changes will be seen only by you. Learn more »
launch autoscroll
font size
0
reset
how to read this tab
guitar tuner
edit
Autoscroll
slow
fast
+/-
esc
set tempo
stop
About this tab version
This version is very accurate. Was this info helpful? Yes No
This is my first tab so let me know what you think!
You can message me on twitter or tumblr if you have any questions
Twitter: https://twitter.com/fifalwt91
Tumblr: http://fifalwt91.tumblr.com

Capo on 2nd Fret.

5 Chord Song: G Am Em C D

************************************

| ^    a word with notes on more than one string that have to be played in time with the vocals.
| *    hold the note/chord
| fhm  fret hand muting / chucking  - Using the fretting hand touch the strings to mute them (stop them from
       sounding) when you pluck/strum, creating a more percussive sound.

************************************

Intro & Verse Tab:
Listen to the song to get the timing & chord strum pattern right.

Chords can be used instead of the tab

     G                           Am         Em
e|--------------------------------------------------------------------------|
B|------0----------0--------0-------1---------------------------------------|
G|---0----------0--------0-------2-------------0------0-----0-----0---------|
D|------------------------------------------2------2-----2-----2------------|
A|--------------------------------------------------------------------------|
E|--------------------------------------------------------------------------|


For this the notes go with the words. If you don't want to do this than keep repeating the Intro and Verse tab
There might be some useless notes so play it and fix it yourself accordingly.

I added spaces in-between some words so you get that note goes to what word.
Some words have more than one note on different strings.



[Verse 1]

       G                                  Am     Em
       You don't un-der-stand ; You don't un-der-stand
e|--------------------------------------------------------------------------|
B|----------0-----0--0----0------------------------0------------------------|
G|------2------------------------2----2---2---0----0------------------------|
D|-------------------------------------------------2------------------------|
A|--------------------------------------------------------------------------|
E|--------------------------------------------------------------------------|

       G                             Am       Em
       What you do to me    when you hold his hand
e|--------------------------------------------------------------------------|
B|-----------0--0--0--0-----------------------------------------------------|
G|-------2--------------------2---2---2---0-----0---------------------------|
D|----------------------------------------------2---------------------------|
A|--------------------------------------------------------------------------|
E|--------------------------------------------------------------------------|

       G                           Am        Em
       We were meant  to  be but a twist of  fate
e|--------------------------------------------------------------------------|
B|-----0---3-----3----3---3---0--0-------------0----------------------------|
G|-----0-----------------------------2----0----0----------------------------|
D|---------------------------------------------2----------------------------|
A|--------------------------------------------------------------------------|
E|--------------------------------------------------------------------------|

       G                          Am      Em
       Made it  so   we   had to  walk  a-way
e|--------------------------------------------------------------------------|
B|-----------0---0----0----0------------------------------------------------|
G|------2----------------------2----2---0--0--------------------------------|
D|-----------------------------------------2--------------------------------|
A|--------------------------------------------------------------------------|
E|--------------------------------------------------------------------------|


[Pre-Chorus]

             G             Am         Em
       Cause we're on   fi-re    ;    We are on   fi-re
e|--------------------------------------------------------------------------|
B|----------------------0--------------------------0------------------------|
G|------0------0----2-------2---------0---0---2--------2--------------------|
D|------------------------------------2-------------------------------------|
A|--------------------------------------------------------------------------|
E|--------------------------------------------------------------------------|

       G               Am     Em
       We're   on   fi-re     now^    
e|----------------------------------|
B|-------------------0--------------|
G|-------0------2-------2-----0-----|
D|-------------------------------2--|
A|----------------------------------|
E|----------------------------------|

        G                      Am        Em      
        Yeah   we're   on   fi-re   ;    We   are   on   fi-re
e|--------------------------------------------------------------------------|
B|---------------------------0-----------------------3----0-----------------|
G|---------------0------2-------2---------0----0-------------2--------------|
D|--------2-------------------------------2---------------------------------|
A|--------------------------------------------------------------------------|
E|--------------------------------------------------------------------------|

        G             Am   Em*
        We're on   fi-re   now*
e|---------------------------0-----|
B|------------------0--3-----0-----|
G|-------0------2------------0-----|
D|---------------------------2-----|
A|---------------------------------|
E|---------------------------------|

        (1,      2,    3!)
e|-------fmh----fmh----fmh------|
B|-------fmh----fmh----fmh------|
G|-------fmh----fmh----fmh------|
D|-------fmh----fmh----fmh------|
A|-------fmh----fmh----fmh------|
E|-------fmh----fmh----fmh------|
(fret hand mute is optional. if you don't want to, then theres no chords for this part)
  

[Chorus]

                G                                   D
        I don't care what peo-ple say when we're to-geth-er
e|------0---2----3-----0---0-------3----0----0--------3---3-----------------|
B|---------------1-------------3------------------3---0---------------------|
G|----------------------------------------------------0---------------------|
D|--------------------------------------------------------------------------|
A|--------------------------------------------------------------------------|
E|--------------------------------------------------------------------------|

            Em                                 C
        You know  I  wan-na  be  the one  to  hold you when you  sleep^
e|------------0---------------------------------0---------------------------|
B|----------------3---3--0----0-----------------0---3----3---0----0---------|
G|-------0------------------------2---2----0----0--------------------2------|
D|----------------------------------------------2---------------------------|
A|--------------------------------------------------------------------------|
E|--------------------------------------------------------------------------|

                 G                                   D
        I  just  want  it  to  be  you  and  I  for- ev- er
e|------0----2-----3----0---0-------3----0---0-------3----3-----------------|
B|-----------------1------------3----------------3---0----------------------|
G|---------------------------------------------------0----------------------|
D|--------------------------------------------------------------------------|
A|--------------------------------------------------------------------------|
E|--------------------------------------------------------------------------|

           Em
        I  know  you  wan-na  leave  so  come   on
e|----------0---------------------------------------------------------------|
B|----------------3----3---0----0-------------------------------------------|
G|------0----------------------------2-----2-----0--------------------------|
D|--------------------------------------------------------------------------|
A|--------------------------------------------------------------------------|
E|--------------------------------------------------------------------------|

        Em*                                 G         Am  Em
        Ba-by  be  with  me   so    hap-pi-ly
e|------0----------------------------------------|
B|---------3----3----0----0----------------------|
G|-----------------------------2-----2---0--0----|
D|-----------------------------------------------|
A|-----------------------------------------------|
E|-----------------------------------------------|


(Repeat Intro & Verse tab)


[Verse 2]

              G                                Am            Em
        It's  four  a. m.  and  I  know  that  you're  with  him
e|--------------------------------------------------------------------------|
B|------------------0--0----0---0-----------------------------0-------------|
G|-------0------2-------------------2------2-----2------0-----0-------------|
D|------------------------------------------------------------2-------------|
A|--------------------------------------------------------------------------|
E|--------------------------------------------------------------------------|

           G                                   Am             Em
        I  won-der  if  he  knows  that  I've  touched  your  skin
e|--------------------------------------------------------------------------|
B|--------------0----0---0----0---------------------------------------------|
G|------0---2------------------------2----2-------2-------0-----0-----------|
D|--------------------------------------------------------------2-----------|
A|--------------------------------------------------------------------------|
E|--------------------------------------------------------------------------|

             G                           Am         Em
        And  if  he  feels  my  trac-es  in  your   ha-ai-r     |(alt. for "hair")
e|--------------------------------------------------------------|-----------|
B|-----------0----3----3-----3----3--0--------------0-----------|-----0-----|
G|-------0---0---------------------------2-----0--------2-0-----|-----0-----|
D|--------------------------------------------------------------|-----2-----|
A|--------------------------------------------------------------|-----------|
E|--------------------------------------------------------------|-----------|

             G                            Am        Em 
        I'm  sor-ry  love  but  I  don't  real-ly   care
e|--------------------------------------------------------------------------|
B|---------------0-----0----0---0-------------------------------------------|
G|-------0----2----------------------2------2---0-----0---------------------|
D|----------------------------------------------------2---------------------|
A|--------------------------------------------------------------------------|
E|--------------------------------------------------------------------------|


[Pre-Chorus]

             G             Am         Em
       Cause we're on   fi-re    ;    We are on   fi-re
e|--------------------------------------------------------------------------|
B|----------------------0--------------------------0------------------------|
G|------0------0----2-------2---------0---0---2--------2--------------------|
D|------------------------------------2-------------------------------------|
A|--------------------------------------------------------------------------|
E|--------------------------------------------------------------------------|

       G               Am     Em
       We're   on   fi-re     now^    
e|----------------------------------|
B|-------------------0--------------|
G|-------0------2-------2-----0-----|
D|-------------------------------2--|
A|----------------------------------|
E|----------------------------------|

               G               Am        Em
        Yeah   we're   on   fi-re   ;    We   are   on   fi-re
e|--------------------------------------------------------------------------|
B|---------------------------0-----------------------3----0-----------------|
G|---------------0------2-------2---------0----0-------------2--------------|
D|--------2-------------------------------2---------------------------------|
A|--------------------------------------------------------------------------|
E|--------------------------------------------------------------------------|

        G             Am   Em*
        We're on   fi-re   now*
e|---------------------------0-----|
B|------------------0--3-----0-----|
G|-------0------2------------0-----|
D|---------------------------2-----|
A|---------------------------------|
E|---------------------------------|

        (1,      2,    3!)
e|-------fmh----fmh----fmh------|
B|-------fmh----fmh----fmh------|
G|-------fmh----fmh----fmh------|
D|-------fmh----fmh----fmh------|
A|-------fmh----fmh----fmh------|
E|-------fmh----fmh----fmh------|
(fret hand mute is optional. if you don't want to, then theres no chords for this part)


[Chorus]

                G                                   D      
        I don't care what peo-ple say when we're to-geth-er
e|------0---2----3-----0---0-------3----0----0--------3---3-----------------|
B|---------------1-------------3------------------3---0---------------------|
G|----------------------------------------------------0---------------------|
D|--------------------------------------------------------------------------|
A|--------------------------------------------------------------------------|
E|--------------------------------------------------------------------------|

           Em                                 C       
        You know  I  wan-na  be  the one  to  hold you when you  sleep^
e|------------0---------------------------------0---------------------------|
B|----------------3---3--0----0-----------------0---3----3---0----0---------|
G|-------0------------------------2---2----0----0--------------------2------|
D|----------------------------------------------2---------------------------|
A|--------------------------------------------------------------------------|
E|--------------------------------------------------------------------------|

                 G                                  D
        I  just  want  it  to  be  you  and  I  for- ev- er
e|------0----2-----3----0---0-------3----0---0-------3----3-----------------|
B|-----------------1------------3----------------3---0----------------------|
G|---------------------------------------------------0----------------------|
D|--------------------------------------------------------------------------|
A|--------------------------------------------------------------------------|
E|--------------------------------------------------------------------------|

           Em       
        I  know  you  wan-na  leave  so  come   on
e|----------0---------------------------------------------------------------|
B|----------------3----3---0----0-------------------------------------------|
G|------0----------------------------2-----2-----0--------------------------|
D|--------------------------------------------------------------------------|
A|--------------------------------------------------------------------------|
E|--------------------------------------------------------------------------|
        Em                                  G
        Ba-by  be  with  me   so    hap-pi-ly
e|------0----------------------------------------|
B|---------3----3----0----0----------------------|
G|-----------------------------2-----2---0--0----|
D|-----------------------------------------------|
A|-----------------------------------------------|
E|-----------------------------------------------|



(         so    hap-pi-ly
 e|---------------------------|
 B|---------------------------|
 G|-------2-----2---0--0------|
 D|---------------------------|
 A|---------------------------|
 E|---------------------------| )
^ This part is played during the instrumental below, played in-between the D and Em chords

        Instrumental:                      ( 1, 2, 3, 4!)
        (same strumming as chorus)
         G          D          Em            C
e|-------3----------2----------0---------|---0----------------|
B|-------0--(x8)----3--(x8)----0--(x8)---|---1--(x8)----------|
G|-------0----------2----------0---------|---0----------------|
D|---------------------------------------|--------------------|
A|---------------------------------------|--------------------|
E|---------------------------------------|--------------------|

        G                       D                Em                    C
        Oh   oh     oh^         oh   oh   oh^    we're   on   fi-re   now 
e|--------------------------------------------------------------------------|
B|-------------------0---------------------0-------------------0------------|
G|------0-----2---------2---0----0----2------2-----0------2-------2----0----|
D|--------------------------0----------------------2-------------------2----|
A|---------------------------------------------------------------------3----|
E|--------------------------------------------------------------------------|

        G                       D                Em                    C
        Oh   oh     oh^         oh   oh   oh^    we're   on   fi-re   now 
e|--------------------------------------------------------------------------|
B|-------------------0---------------------0-------------------0------------|
G|------0-----2---------2---0----0----2------2-----0------2-------2----0----|
D|--------------------------0----------------------2-------------------2----|
A|---------------------------------------------------------------------3----|
E|--------------------------------------------------------------------------|

        G                       D                Em*                   N.C.
        Oh   oh     oh^         oh   oh   oh^    we're   on   fi-re   now 
e|---------------------------------------------------------------------0----|
B|-------------------0---------------------0-------------------0--3----0----|
G|------0-----2---------2---0----0----2------2-----0------2------------0----|
D|--------------------------0----------------------2-------------------2----|
A|--------------------------------------------------------------------------|
E|--------------------------------------------------------------------------|


[Chorus]

                  G                                         D
        I  don't  care  what  peo-ple  say  when  we're  to-geth-er
e|------0----2-----3------0----0--------3----0------0--------3---3----------|
B|-----------------1--------------3-----------------------3--0--------------|
G|-----------------------------------------------------------0--------------|
D|--------------------------------------------------------------------------|
A|--------------------------------------------------------------------------|
E|--------------------------------------------------------------------------|
            Em                                C
        You know  I  wan-na  be  the one  to  hold you when you  sleep^
e|------------0---------------------------------0---------------------------|
B|----------------3---3--0----0-----------------0---3----3---0----0---------|
G|-------0------------------------2---2----0----0--------------------2------|
D|----------------------------------------------2---------------------------|
A|--------------------------------------------------------------------------|
E|--------------------------------------------------------------------------|

                 G                                   D
        I  just  want  it  to  be  you  and  I  for- ev- er
e|------0----2-----3----0---0-------3----0---0-------3----3-----------------|
B|-----------------1------------3----------------3---0----------------------|
G|---------------------------------------------------0----------------------|
D|--------------------------------------------------------------------------|
A|--------------------------------------------------------------------------|
E|--------------------------------------------------------------------------|

           Em
        I  know  you  wan-na  leave  so  come   on
e|----------0---------------------------------------------------------------|
B|----------------3----3---0----0-------------------------------------------|
G|------0----------------------------2-----2-----0--------------------------|
D|--------------------------------------------------------------------------|
A|--------------------------------------------------------------------------|
E|--------------------------------------------------------------------------|

        Em
        Ba-by  be  with  me   so..
e|------0----------------------------------------|
B|---------3----3----0----0----------------------|
G|-----------------------------2-----------------|
D|-----------------------------------------------|
A|-----------------------------------------------|
E|-----------------------------------------------|

                  G                                         D
        I  don't  care  what  peo-ple  say  when  we're  to-geth-er
e|------0----2-----3------0----0--------3----0------0--------3---3----------|
B|-----------------1--------------3-----------------------3--0--------------|
G|-----------------------------------------------------------0--------------|
D|--------------------------------------------------------------------------|
A|--------------------------------------------------------------------------|
E|--------------------------------------------------------------------------|

            Em                                C
        You know  I  wan-na  be  the one  to  hold you when you  sleep^
e|------------0---------------------------------0---------------------------|
B|----------------3---3--0----0-----------------0---3----3---0----0---------|
G|-------0------------------------2---2----0----0--------------------2------|
D|----------------------------------------------2---------------------------|
A|--------------------------------------------------------------------------|
E|--------------------------------------------------------------------------|

                 G                                   D
        I  just  want  it  to  be  you  and  I  for- ev- er
e|------0----2-----3----0---0-------3----0---0-------3----3-----------------|
B|-----------------1------------3----------------3---0----------------------|
G|---------------------------------------------------0----------------------|
D|--------------------------------------------------------------------------|
A|--------------------------------------------------------------------------|
E|--------------------------------------------------------------------------|

           Em   
        I  know  you  wan-na  leave  so  come   on
e|----------0---------------------------------------------------------------|
B|----------------3----3---0----0-------------------------------------------|
G|------0----------------------------2-----2-----0--------------------------|
D|--------------------------------------------------------------------------|
A|--------------------------------------------------------------------------|
E|--------------------------------------------------------------------------|

        Em*                                 N.C.
        Ba-by  be  with  me   so    hap-pi-ly
e|------0----------------------------------------|
B|---------3----3----0----0----------------------|
G|-----------------------------2-----2---0--0----|
D|-----------------------------------------------|
A|-----------------------------------------------|
E|-----------------------------------------------|

            
            
Suggest correction
Creating personal tab
Creating personal tab
You can edit any tab online and save it as your Personal.

You can edit, replace or remove any tab part or add personal notes – all changes will be seen only by you.

Personal tabs can be accessed anytime from any device, even offline.
Learn more »
Give kudos to tab author, rate the tab!
1 2 3 4 5
comments
print report bad tab
guest
You may want to rate the tab now too:
select rating
Wanna post a correction for this tab? Suggest correction