Oops, an error
Loading. Please wait.

I Want To Write You A Song tab

version 3
version 3

Whole song

Interactive

2,839 views 21 this week
no commentswrite comment
1 2 3 4 5
x 3
add to favorites
×
Save as Personal and add changes to this tab that will be seen only by you. Learn more ›
×
You can save this tab as Personal to edit and correct it or add notes. All changes will be seen only by you. Learn more »
launch autoscroll
font size
0
reset
how to read this tab
guitar tuner
edit
Autoscroll
slow
fast
+/-
esc
set tempo
stop
Author
Difficulty
-------------------------------------------------------------------------------
                             SONG NAME - Band Name
-------------------------------------------------------------------------------
Tabbed by:
E-mail:

Tuning: Standard

Order:
V1
V2
CHORUS 1
V3
CHORUS 2 (repeat w/ ending)
OUTRO (4)


Verse:

e|------------------------------10-----10-----10-----10----------------------|
B|--10-----10-----10-----10--------------------------------------------------|
G|---------------------------------------------------------------------------|
D|----------------------------------8------8------8------8-------------------|
A|------8------8------8------8-----------------------------------------------|
E|---------------------------------------------------------------------------|

  1. I want to write you a song
  2. I want to lend you my coat
  3. I want to build you a boat
  4. I want to write you a song

e|------------------------8-----10-----10-----10------10---------------------|
B|--10-----10-----11---------------------------------------------------------|
G|---------------------------------------------------------------------------|
D|---------------------------7------8------8------8------8-------------------|
A|------8------8------10-----------------------------------------------------|
E|---------------------------------------------------------------------------|

   1. One that's beautiful as you are sweet
   2. One that's as soft as your cheek
   3. One that's as strong as you are free
   4. One to make your heart remember me

e|--10-----10-----8-----8---------------------------------------------------------|
B|----------------------------11------11------10-----8-----6-----6-----6-----6----|
G|--------------------------------------------------------------------------------|
D|------8------8-----7-----7------------------------------------------------------|
A|--------------------------------10------10------8-----7-----5-----5-----5-----5-|
E|--------------------------------------------------------------------------------|

   1. With just a hint of pain for the feeling that I get when you are gone
   2. So when the world is cold, you will have a hiding place you can go
   3. So any time you think that your heart is gonna sink, you know it won't
   4. So any time I'm gone, you can listen to my voice and sing along

e|---------------------------------------------------------------------------|
B|--------------------------6-----6-----6-----6------------------------------|
G|--7-----7-----9-----9------------------------------------------------------|
D|---------------------------------------------------------------------------|
A|-----------------------------8-----8-----8-----8---------------------------|
E|-----6-----6-----8-----8---------------------------------------------------|

   1. I want to write you a song.
   2. I want to lend you my coat.
   3. I want to build you a boat.

** End of outro:

e|---------------------------------------------------------------------------|
B|--------------------------6-----6-----6-----6------------------------------|
G|--7-----7-----9-----9------------------------------------------------------|
D|---------------------------------------------------------------------------|
A|-----------------------------5-----5-----5-----5---------------------------|
E|-----6-----6-----8-----8---------------------------------------------------|
    4. I want to write you a song.

e|---------------------------------------------------------------------------|
B|--------------------------6-----6-----6-----6------------------------------|
G|--7-----7-----9-----9------------------------------------------------------|
D|---------------------------------------------------------------------------|
A|-----------------------------8-----8-----8-----8---------------------------|
E|-----6-----6-----8-----8---------------------------------------------------|
    4. I want to write you a song.



Chorus: (Not too sure about this but it sounds alright)
e|---------------------------------------------------------------------------|
B|--------------------------5-----5-----5-----5------------------------------|
G|--7-----7-----5-----5------------------------------------------------------|
D|---------------------------------------------------------------------------|
A|-----------------------------3-----3-----3-----3---------------------------|
E|-----6-----6-----5-----5---------------------------------------------------|

                            Everything I need I get from you

e|---------------------------------------------------------------------------|
B|--------------------------5-----5-----6-----6------------------------------|
G|--7-----7-----5-----5------------------------------------------------------|
D|---------------------------------------------------------------------------|
A|-----------------------------3-----3-----5-----5---------------------------|
E|-----6-----6-----5-----5---------------------------------------------------|

e|---------------------------------------------------------------------------|
B|--------------------------5-----5-----5-----5------------------------------|
G|--7-----7-----5-----5------------------------------------------------------|
D|---------------------------------------------------------------------------|
A|-----------------------------3-----3-----3-----3---------------------------|
E|-----6-----6-----5-----5---------------------------------------------------|

                            Giving back is all I wanna do

e|---------------------------------------------------------------------------|
B|--------------------------5-----5-----6-----6------------------------------|
G|--7-----7-----5-----5------------------------------------------------------|
D|---------------------------------------------------------------------------|
A|-----------------------------3-----3-----5-----5---------------------------|
E|-----6-----6-----5-----5---------------------------------------------------|

end of 2nd chorus: (not sure but it sounds ok)

e|---------------------------------------------------------------------------|
B|---------------------------------------------------------------------------|
G|--7-----7-----5-----5-----5-----5-----3-----3------------------------------|
D|---------------------------------------------------------------------------|
A|-----------------------------------------1-----1---------------------------|
E|-----6-----6-----5-----5-----4-----4---------------------------------------|

            
            
Suggest correction
Creating personal tab
Creating personal tab
You can edit any tab online and save it as your Personal.

You can edit, replace or remove any tab part or add personal notes – all changes will be seen only by you.

Personal tabs can be accessed anytime from any device, even offline.
Learn more »
Give kudos to tab author, rate the tab!
1 2 3 4 5
comments
print report bad tab
guest
You may want to rate the tab now too:
select rating
Wanna post a correction for this tab? Suggest correction