Oops, an error
Loading. Please wait.

If I Could Fly tab

version 1
version 1

Whole song

  • This is the studio version of the song. It is in s... Show more
  • B is played different in chorus and verse. Couldn'... Show more
772 views 33 this week
no commentswrite comment
1 2 3 4 5
x 5
add to favorites
×
Save as Personal and add changes to this tab that will be seen only by you. Learn more ›
×
You can save this tab as Personal to edit and correct it or add notes. All changes will be seen only by you. Learn more »
launch autoscroll
font size
0
reset
how to read this tab
guitar tuner
edit
Autoscroll
slow
fast
+/-
esc
set tempo
stop
Author
Difficulty
About this tab version
This is the studio version of the song. It is in standard tuning, no capo.Just listen along to the recording to play, it isn't too complex. Was this info helpful? Yes No
[Verse]
e|---------------------------------------------------------------------------|
B|-----1---------------------------1-----------------------------------------|
G|-0-2---2----0-2---3-2-0-2-0--0-2---2-0------0-2---3-2-0-2-0----------------|
D|----------3-----3----------------------3--3-----3--------------------------|
A|---------------------------------------------------------------------------|
E|---------------------------------------------------------------------------|

[Pre-Chorus]
e|---------------------------------------------------------------------------|
B|-----------1-1-1-1----------------------------1-1-1-1----------------------|
G|-2-2-2-2-2---------2-----0-2---2-0--2-2-2-2-2---------2-3-2----------------|
D|-----------------------3-----3---------------------------------------------|
A|---------------------------------------------------------------------------|
E|---------------------------------------------------------------------------|

[Chorus]
e|---1-0-------------------1-0-------------------1-0---0-1-------------------|
B|-1-----3-1-------------1-----3-1--------1----1-----3-----------------------|
G|--------------0-0-2-2---------------0-0---2--------------------------------|
D|------------3---------------------3----------------------------------------|
A|---------------------------------------------------------------------------|
E|---------------------------------------------------------------------------|

e|------------------------------5-3-1-1-1------------------------------------|
B|---------------------------------------------------------------------------|
G|-0-0-2-2--2-0--------2-0-----------------------0---------------------------|
D|--------------3-3--3-----3-3---------------0-3---3-------------------------|
A|-----------------------------------------3---------------------------------|
E|---------------------------------------------------------------------------|

[Play the verse, pre-chorus and chorus again]
[I'm not sure what part of the song this is. If you know feek free to put it in there.]

e|--------------------------1-----1------------------------------------------|
B|-3-1-3-3-3-1-1-3-1-3-1--1---1-1---1----------------------------------------|
G|---------------------------------------------------------------------------|(x2)
D|---------------------------------------------------------------------------|
A|---------------------------------------------------------------------------|
E|---------------------------------------------------------------------------|

e|-----------------------------------------------1-0-------------------------|
B|-3-1-3-3-3-1-1-3-1-3-1--1-2-2-3-1-----1------1-----3-1---------------------|
G|----------------------------------2-2---2-2---------------0-0-2-2----------|
D|--------------------------------------------------------3------------------|
A|---------------------------------------------------------------------------|
E|---------------------------------------------------------------------------|

e|---1-0-------------------1-0---0-5--------------------------------1-0------|
B|-1-----3-1--------1----1-----3----------------------------------1-----3-1--|
G|--------------0-0---2---------------0-0-2-2--2-0--------2-0----------------|
D|------------3------------------------------------3-3--3-----3-3------------|
A|---------------------------------------------------------------------------|
E|---------------------------------------------------------------------------|

e|--------------1-0---------------------1-0---0-1----------------------------|
B|------------1-----3-1----------1----1-----3--------------------------------|
G|---0-0-2-2---------------0-0-2---2---------------0-0-2-2--2-0--------------|
D|-3---------------------3--------------------------------------3-3----------|
A|---------------------------------------------------------------------------|
E|---------------------------------------------------------------------------|

e|------------5-3-1-1--------------------------------------------------------|
B|---------------------------------------------------------------------------|
G|---2-0---------------------0-----------------------------------------------|
D|-3-----3-3-------------0-3---3---------------------------------------------|
A|---------------------3-----------------------------------------------------|
E|---------------------------------------------------------------------------|

            
            
Suggest correction
Creating personal tab
Creating personal tab
You can edit any tab online and save it as your Personal.

You can edit, replace or remove any tab part or add personal notes – all changes will be seen only by you.

Personal tabs can be accessed anytime from any device, even offline.
Learn more »
comments
print report bad tab
guest
You may want to rate the tab now too:
select rating
Wanna post a correction for this tab? Suggest correction