Oops, an error
Loading. Please wait.

If I Could Fly tab

version 2
version 2

Whole song

  • This is the studio version of the song. It is in s... Show more
  • B is played different in chorus and verse. Couldn'... Show more
67 views 9 this week
no commentswrite comment
1 2 3 4 5
2 more votes to show rating
add to favorites
×
Save as Personal and add changes to this tab that will be seen only by you. Learn more ›
×
You can save this tab as Personal to edit and correct it or add notes. All changes will be seen only by you. Learn more »
launch autoscroll
font size
0
reset
how to read this tab
guitar tuner
edit
Autoscroll
slow
fast
+/-
esc
set tempo
stop
About this tab version
B is played different in chorus and verse. Couldn't find a tab so I made one myself. Was this info helpful? Yes No
[Intro]
    E
e|--0--0--0--0--0--0--0--0--------------------------------------------------------------|
B|--------------------------------------------------------------------------------------|
G|---1--1--1--1--1--1--1--1-------------------------------------------------------------|
D|---2--2--2--2--2--2--2--2-------------------------------------------------------------|
A|--------------------------------------------------------------------------------------|
E|--------------------------------------------------------------------------------------|

[Verse]
      E            A          E  Fm E (B)
e|-{--0---0---0---------------------------}-x2--|
B|-{--------------------------------------}-----|
G|-{----1---1---1----------2--1--2--1-----}-----|
D|-{----2---2---2--1h3-----2--2--4--2--1--}-----|
A|-{--=-----------------0-----2--4--2--2--}-----|
E|-{=----------------------------------2--}-----|

     If I could fly, I'd be coming right back home to you
     I think I might give up everything, just ask me to

[Pre-Chorus]
     C#m      A       E    (B)
e|-(-(4)--(4)------------------)-x2--|
B|-(--5----5-------------------)-----|
G|-(--6----6--2--2--1--1-------)-----|
D|-(--6----6--2--2--2--2--1--1-)-----|
A|-(-(4)--(4)-------2--2--2--2-)-----|
E|-(-(4)--(4)-------------2--2-)-----|

     Pay attention, I hope that you listen cause I let my guard down
     Right now I'm completely defenceless

[Chorus]
     A     E      B        C#m           A        E     G#        C#m       A     E          A  E
e|-(-------------(2)--(2)--(4)-----)-x2--------0--------(4)--(4)--(4)-----(------------)-x2--------|
B|-(-2--2--------=4----4---=5---4--)-----2--4-----------(4)--(4)---5---4--(-2--2-------)-----2-----|
G|-(-2--2--1--1---4----4----6------)-----2-------=1--1---5----5----6------(-2--2--1--1-)-----2--1--|
D|-(-2--2--2--2---4----4----6------)-----2-------=2--2---6----6----6------(-2--2--2--2-)-----2--2--|
A|-(-------2--2--(2)--(2)--(4)-----)------------=-2--2---6----6---(4)-----(-------2--2-)--------2--|
E|-(-------------(2)--(2)--(4)-----)--------------------(4)--(4)--(4)------------------------------|

     For your eyes only, I'll show you my heart
     For when you're lonely and forget who you are
     I'm missing half of me when we're apart
     Now you know me, for your eyes only, for your eyes only

[Verse 2]
      E            A          E  Fm E (B)
e|-{--0---0---0---------------------------}-x2--|
B|-{--------------------------------------}-----|
G|-{----1---1---1----------2--1--2--1-----}-----|
D|-{----2---2---2--1h3-----2--2--4--2--1--}-----|
A|-{--=-----------------0-----2--4--2--2--}-----|
E|-{=----------------------------------2--}-----|

    I've got scars even though they can't always be seen
    And pain gets hard, but now you're here and I don't feel a thing

[Pre-Chorus]
     C#m      A       E    (B)
e|-(-(4)--(4)------------------)-x2--|
B|-(--5----5-------------------)-----|
G|-(--6----6--2--2--1--1-------)-----|
D|-(--6----6--2--2--2--2--1--1-)-----|
A|-(-(4)--(4)-------2--2--2--2-)-----|
E|-(-(4)--(4)-------------2--2-)-----|

    Pay attention, I hope that you listen cause I let my guard down
    Right now I'm completely defenceless

[Chorus]
     A     E      B        C#m           A        E     G#        C#m       A     E          A  E
e|-(-------------(2)--(2)--(4)-----)-x2--------0--------(4)--(4)--(4)-----(------------)-x2--------|
B|-(-2--2--------=4----4---=5---4--)-----2--4-----------(4)--(4)---5---4--(-2--2-------)-----2-----|
G|-(-2--2--1--1---4----4----6------)-----2-------=1--1---5----5----6------(-2--2--1--1-)-----2--1--|
D|-(-2--2--2--2---4----4----6------)-----2-------=2--2---6----6----6------(-2--2--2--2-)-----2--2--|
A|-(-------2--2--(2)--(2)--(4)-----)------------=-2--2---6----6---(4)-----(-------2--2-)--------2--|
E|-(-------------(2)--(2)--(4)-----)--------------------(4)--(4)--(4)------------------------------|

     For your eyes only, I'll show you my heart
     For when you're lonely and forget who you are
     I'm missing half of me when we're apart
     Now you know me, for your eyes only, for your eyes only

[Bridge]
     C#m       A     E     G#              C#  E   B
e|-(-(4)--(4)--------------(4)--(4)-)-x2--(4)-----(2)--|
B|-(--5----5---2--2--------(4)--(4)-)------5-------4---|
G|-(--6----6---2--2--1--1---5----5--)------6---1---4---|
D|-(--6----6---2--2--2--2---6----6--)------6---2---4---|
A|-(-(4)--(4)--------2--2---6----6--)-----(4)--2--(2)--|
E|-(-(4)--(4)--------------(4)--(4)-)-----(4)-----(2)--|

I can feel your heart inside of mine
(I feel it, I feel it)
I've been going out of my mind
(I feel it, I feel it)
Know that I'm just wasting time and I
Hope that you don't run from me

[Chorus]
     A     E      B        C#m           A        E     G#        C#m       A     E          A  E
e|-(-------------(2)--(2)--(4)-----)-x2--------0--------(4)--(4)--(4)-----(------------)-x2--------|
B|-(-2--2--------=4----4---=5---4--)-----2--4-----------(4)--(4)---5---4--(-2--2-------)-----2-----|
G|-(-2--2--1--1---4----4----6------)-----2-------=1--1---5----5----6------(-2--2--1--1-)-----2--1--|
D|-(-2--2--2--2---4----4----6------)-----2-------=2--2---6----6----6------(-2--2--2--2-)-----2--2--|
A|-(-------2--2--(2)--(2)--(4)-----)------------=-2--2---6----6---(4)-----(-------2--2-)--------2--|
E|-(-------------(2)--(2)--(4)-----)--------------------(4)--(4)--(4)------------------------------|

For your eyes only
I'll show you my heart
(For when you're lonely)
And forget who you are

(I'm missing half of me)
(When we're apart
Now you know me, for your eyes only
For your eyes only, I'll show you my heart
For when you're lonely and forget who you are
I'm missing half of me when we're apart
Now you know me, for your eyes only)

[Outro]
   A  E  A  E
e|---------------------------------------------------------------------------------|
B|-2-----2-------------------------------------------------------------------------|
G|-2--1--2--1----------------------------------------------------------------------|
D|-2--2--2--2----------------------------------------------------------------------|
A|----2-----2----------------------------------------------------------------------|
E|---------------------------------------------------------------------------------|

For your eyes only
(For your eyes only)

 
************************************

| x    Dead note
| h    Hammer-on
| (n)  Ghost note
 

************************************

            
            
Suggest correction
Creating personal tab
Creating personal tab
You can edit any tab online and save it as your Personal.

You can edit, replace or remove any tab part or add personal notes – all changes will be seen only by you.

Personal tabs can be accessed anytime from any device, even offline.
Learn more »
Give kudos to tab author, rate the tab!
1 2 3 4 5
comments
print report bad tab
guest
You may want to rate the tab now too:
select rating
Wanna post a correction for this tab? Suggest correction