Oops, an error
Loading. Please wait.

Irresistible Tab

version 2
version 2

Whole song

12,690 views 9 this week
no commentswrite comment
1 2 3 4 5
accurate
x 4
add to favorites
launch autoscroll
font size
0
reset
how to read this tab
guitar tuner
Autoscroll
slow
fast
+/-
esc
set tempo
stop
Help us to improve Ultimate-Guitar.com Take our survey!
×
Author
Difficulty
intermediate
Intro: [4x]

-----------------------------|
-------3---3----3-----3------|
-----0-----------------------|
-4-5-----5----5----5---------|
-----------------------------|
-----------------------------|

Verse: [2x]

----------------------------------------------------------------------------|
---3---3---3---3---3---3---3---3---3--3--3--3----3----3---3----3------------|
--0---------------0---------------0-------------0---------------------------|
-5---5---4---4---2---2---0---0-----------------2----2----0---0--------------|
---------------------------------3--3--3--3---------------------------------|
----------------------------------------------------------------------------|

Don't try to make me stay
Or ask if I'm okay
I don't have the answer
Don't make me stay the night
Or ask if I'm alright
I don't have the answer.

Pre-chorus: [2x]

----------------------------------------------------------------------------|
-----3---3---3---3------3---3---3---3---------------------------------------|
---0------------------0-----------------------------------------------------|
--------------------2-----2---0---0-----------------------------------------|
-2-----2---3---3------------------------------------------------------------|
----------------------------------------------------------------------------|

----------------------------------------------------------------------------|
-----3---3---3---3------3---3---3---3---------------------------------------|
---0------------------0-----------------------------------------------------|
--------------------0-----0---0---0-----------------------------------------|
-2-----2---3---3------------------------------------------------------------|
----------------------------------------------------------------------------|

Heartache doesn't last forever
I'll say I'm fine
Midnight ain't no time for laughing
When you say goodbye.

Chorus:

-----------------------------------------------------------------------------|
--3--3--3--3--3--3--3--3--3--3--3--3--3--3--3--3--3--3--3--3--3--3--3--3-----|
--0--0--0--0--0--0--0--0--0--0--0--0--0--0--0--0--0--0--0--0--0--0--0--0-----|
-----------------------------------------------------------------------------|
-2--2--0--0--0--0--2--2--2--2--0--0--0--0--------2--2--0--0--0--0--2--2------|
-------------------------------------------3--3------------------------------|

----------------------------------------------------------------------------|
--2--2--2--2--3--3----------------------------------------------------------|
--0--0--0--0--0--0----------------------------------------------------------|
-------------------0--------------------------------------------------------|
-0--0--0--0--3--3-----------------------------------------------------------|
----------------------------------------------------------------------------|

It makes your lips so kissable
And your kiss unmissable
Your fingertips so touchable
And your eyes irresistible.

-----------------------------------------------|
-------3--3--3--3--3--3--3--3--3--3--3--3------|
-----0------------0-----------0----------------|
-4-5----5--4--4--2--2--0--0-----------0--------|
-----------------------------3--2--0-----------|
-----------------------------------------------|

Repeat Verse, Pre-chorus and Chorus.


But I know, if I go now, if I leave
Then I'm on my own tonight
I'll never know the answer.

Midnight doesn't last forever
Dark turns to light
Heartache flips my world around
I'm falling down, down, down,
That's why.

I find your lips so kissable
And your kiss unmissable
Your fingertips so touchable
And your eyes irresistible

Brigde:

     C   D   G
(Irresistible)
Irresistible
     C   D   G
(Irresistible)
Irresistible
     C   D   G
(Irresistible)
Irresistible
     C   Am   D
(Irresistible)

---------------------------------------------|
--3--3--3--3--3--3--3--3---------------------|
--0--0--0--0--0--0--0--0---------------------|
-------0--0----------------------------------|
-2--2----------------------------------------|
-------------3--3--0--0----------------------|

---------------------------------------------|
--3--3--3--3--3--3--3--3---------------------|
--0--0--0--0--0--0--0--0---------------------|
-------0--0----------------------------------|
-2--2----------------------------------------|
-------------3--3--3--3----------------------|

---------------------------------------------|
--3--3--3--3--3--3--3--3---------------------|
--0--0--0--0--0--0--0--0---------------------|
-------0--0----------------------------------|
-2--2----------------------------------------|
-------------3--3--3--3----------------------|

---------------------------------------------|
--2--2--2--2--3--3---------------------------|
--0--0--0--0--0--0---------------------------|
-------------------0-------------------------|
-0--0--0--0--3--3----------------------------|
---------------------------------------------|

It's in your lips and in your kiss
It's in your touch and your fingertips
And it's in all the things and other things
That make you who you are and your eyes irresistible.

              C    D  G
It makes your lips so kissable
         C    D   G
And your kiss invincible
      C    D       G
Your fingertips so touchable
         Am
And your eyes, your eyes, your eyes,
Your eyes, your eyes, your eyes
C Am
Irresistible.

Outro: [3x] and play a chord at the end

-----------------------------3-|
-------3---3----3-----3------3-|
-----0-----------------------0-|
-4-5-----5----5----5---------5-|
-----------------------------x-|
-----------------------------x-|
Suggest correction
comments
print report bad tab
guest
You may want to rate the tab now too:
select rating
Please do not post tabs as comments. Select "correction" instead!