Oops, an error
Loading. Please wait.

Kiss You bass

718 views 21 this week
no commentswrite comment
1 2 3 4 5
3 more votes to show rating
add to favorites
×
Save as Personal and add changes to this tab that will be seen only by you. Learn more ›
×
You can save this tab as Personal to edit and correct it or add notes. All changes will be seen only by you. Learn more »
launch autoscroll
font size
0
reset
guitar tuner
edit
Autoscroll
slow
fast
+/-
esc
set tempo
stop
Author
Difficulty
-------------------------------------------------------------------------------
                             KISS YOU - One Direction
-------------------------------------------------------------------------------
Tabbed by: Lisa Högrelius
E-mail: lisahogrelius@gmail.com

Tuning: Standard

[VERSE 1] - no bass for 20 bars
Oh, I just wanna take you anywhere that you'd like
We could go out any day, any night
Baby I'll take you there, take you there
Baby I'll take you there, yeah
Oh, tell me, tell me, tell me, how to turn your love on
You can get, get anything that you want
Baby just shout it out, shout it out
Baby just shout it out, yeah
And if

G|----------------|--------------|----------------|----------4---| the 4 should be plucked
D|-2-----2--------|--------------|----------------|--------------|
A|-----------2-4--|0-----0-------|-0-----0---2-4--|2-----2-----2-|
E|----------------|--------------|----------------|--------------|
   1 + 2 + 3 + 4 + 1 + 2 + 3 + 4 + 1 + 2 + 3 + 4 + 1 + 2 + 3 + 4 +
    you              You want me too                Let's make a

G|----------------|--------------|----------------|---------------|
D|-2-----2--------|--------------|----------------|---------------|
A|-----------2-4--|0-----0-------|----------------|---------------|
E|----------------|--------------|----------------|---------------|
   1 + 2 + 3 + 4 + 1 + 2 + 3 + 4 + 1 + 2 + 3 + 4 + 1 + 2 + 3 + 4 +
    move                Yeah, so tell me girl if every time we

[CHORUS 1]
G|----------------|--------------|----------------|--------------|
D|-2-2------------|--------------|-2-2------------|--------------|
A|-------2-0------|0-0---4-2-----|-------4-0------|0-0---4-2-----|
E|----------------|--------------|----------------|--------------|
   1 + 2 + 3 + 4 + 1 + 2 + 3 + 4 + 1 + 2 + 3 + 4 + 1 + 2 + 3 + 4 +
   touch, you get this kinda rush, baby say yeah 6x if you don't wanna

G|----------------|--------------|----------------|--------------|
D|-2-2------------|--------------|-2-2------------|--------------|
A|-------2-0------|0-0---4-2-----|-------4-0------|0-0-0---------|
E|----------------|--------------|----------------|--------------|
   1 + 2 + 3 + 4 + 1 + 2 + 3 + 4 + 1 + 2 + 3 + 4 + 1 + 2 + 3 + 4 +
  take it slow, and you just wanna take me home, baby say yeah 6x,and let me kiss you

Guitar only for 2 bars

[VERSE 2]
Oh baby baby

G|----------------|--------------|----------------|----------4----| the 4 should be plucked
D|-2-----2--------|--------------|----------------|---------------|
A|-----------2-4--|0-----0-------|-0-----0---2-4--|2-----2-----2--|
E|----------------|--------------|----------------|---------------|
   1 + 2 + 3 + 4 + 1 + 2 + 3 + 4 + 1 + 2 + 3 + 4 + 1 + 2 + 3 + 4 +
don't you know you got what I need, looking so good from
your head to your feet, come on come

G|----------------|--------------|----------------|--------------------|
D|-2-----2--------|--------------|----------------|--------------------|
A|-----------2-4--|0-----0-------|-0-----0---2-4--|2-/14-14-14-14-14-14|
E|----------------|--------------|----------------|--------------------|
   1 + 2 + 3 + 4 + 1 + 2 + 3 + 4 + 1 + 2 + 3 + 4 + 1 + 2  +  3  +  4  +
over here over here, come on come over here yeah
oh I just wanna

G|----------------|--------------|----------------|----------4----| the 4 should be plucked
D|-2-----2--------|--------------|----------------|---------------|
A|-----------2-4--|0-----0-------|-0-----0---2-4--|2-----2-----2--|
E|----------------|--------------|----------------|---------------|
   1 + 2 + 3 + 4 + 1 + 2 + 3 + 4 + 1 + 2 + 3 + 4 + 1 + 2 + 3 + 4 +
show you off to all my friends, making them drool off their
chinny-chin-chins, baby be

G|----------------|--------------|----------------|--------------------|
D|-2-----2--------|--------------|----------------|--------------------|
A|-----------2-4--|0-----0-------|-0-----0---2-4--|2-/14-14-14-14-14-14|
E|----------------|--------------|----------------|--------------------|
   1 + 2 + 3 + 4 + 1 + 2 + 3 + 4 + 1 + 2 + 3 + 4 + 1 + 2  +  3  +  4  +
mine tonight, mine tonight, baby be mine tonight yeah, and if

G|----------------|--------------|----------------|----------4----| the 4 should be plucked
D|-2-----2--------|--------------|----------------|---------------|
A|-----------2-4--|0-----0-------|-0-----0---2-4--|2-----2-----2--|
E|----------------|--------------|----------------|---------------|
   1 + 2 + 3 + 4 + 1 + 2 + 3 + 4 + 1 + 2 + 3 + 4 + 1 + 2 + 3 + 4 +
   you,                         you want me too     let's make a

G|----------------|--------------|----------------|---------------|
D|-2-----2--------|--------------|----------------|---------------|
A|-----------2-4--|0-----0-------|----------------|---------------|
E|----------------|--------------|----------------|---------------|
   1 + 2 + 3 + 4 + 1 + 2 + 3 + 4 + 1 + 2 + 3 + 4 + 1 + 2 + 3 + 4 +
   move,                 so tell me girl if every time we

[CHORUS 2]
Touch
You get this kind of rush
Baby say yeah yeah yeah, yeah yeah yeah
If you don't wanna take it slow
And you just wanna take me home
Baby say yeah yeah yeah, yeah yeah
And let me kiss you


[BRIDGE] - no bass for 16 bars


[CHORUS 3]
Yeah, so tell me, girl, if every time we
Touch
You get this kind of rush
Baby, say yeah yeah yeah, yeah yeah yeah
If you don't wanna take it slow
And you just wanna take me home
Baby, say yeah yeah yeah, yeah yeah yeah
Every time we touch
You get this kind of rush
Baby, say yeah yeah yeah, yeah yeah yeah
If you don't wanna take it slow
And you just wanna take me home
Baby, say yeah yeah yeah, yeah yeah
And let me kiss you


| /  slide up
| \  slide down
| h  hammer-on
| p  pull-off
| ~  vibrato
| +  harmonic
| x  Mute note
===============================================================================

            
            
Suggest correction
Creating personal tab
Creating personal tab
You can edit any tab online and save it as your Personal.

You can edit, replace or remove any tab part or add personal notes – all changes will be seen only by you.

Personal tabs can be accessed anytime from any device, even offline.
Learn more »
Give kudos to tab author, rate the tab!
1 2 3 4 5
comments
print report bad tab
guest
You may want to rate the tab now too:
select rating
Wanna post a correction for this tab? Suggest correction