Oops, an error
Loading. Please wait.

Little Things Tab

version 4
version 4

Whole song

Interactive

7,722 views 297 this week
no commentswrite comment
1 2 3 4 5
x 3
add to favorites
launch autoscroll
font size
0
reset
how to read this tab
guitar tuner
×
Best way to learn
"Little Things"
Autoscroll
slow
fast
+/-
esc
set tempo
stop
Author
Difficulty
novice
-------------------------------------------------------------------------------
                             Little Things - One Direction
-------------------------------------------------------------------------------
Tabbed by: Pr0_NoOb_99
E-mail: pro.noob.1999@gmail.com
  
  This tab is for the picking guitar not the one strumming the chords

Tuning: E - A - D - G - B - e (STANDARD)

        The intro repeats until the chorus.

  INTRO & VERSE

e|-7---5-------7---5--------7---5-----7---5--------5---5------5---5----------|
B|---8---8-------8---8--------8---8-----8---8--------8---8------8---8--------|
G|-7---7-------7---7--------7---7-----7---7--------7---7------7---7----------|
D|---------------------------------------------------------------------------|
A|---------------------------------------------------------------------------|
E|---------------------------------------------------------------------------|

e|-5-(5)-----------|
B|------------7h8--|
G|-5----------7----|  
D|-----------------|
A|-----------------|
E|-----------------|


  CHORUS   

e|-5---5------7--5----------------------------7---5--------------------------|
B|---8---8---------8---8-8---7-8p7----8---8-----8---8------8--8---7-8h7------|
G|-7---7------7--7-----7-7---7------5---5-----5---5------4--4-----7----------|
D|---------------------------------------------------------------------------|
A|---------------------------------------------------------------------------|
E|---------------------------------------------------------------------------|

e|--------------|------------------------------|--------------------5h7---5--|
B|---8---8---8--|-----8---8--------8------8----|-------8-----8---------8----8|
G|-5---5---5----|---5---5-------5-------5------|----5-----5------5-----------|
D|--------------|------------------------------|-----------------------------|
A|--------------|------------------------------|-----------------------------|
E|--------------|------------------------------|-----------------------------|
        1st              2nd Chorus                     Last Chorus
  Chorus Ending            Ending (Slower)              Ending

        
        Repeat VERSE


  BRIDGE (Not sure about this part)

e|---------------------------------------------------------------------------|
B|------Its just a bunch of 8's on this string-------------------------------|
G|---------------------------------------------------------------------------|
D|---------------------------------------------------------------------------|
A|---------------------------------------------------------------------------|
E|---------------------------------------------------------------------------|



************************************

| /   slide up
| ()  let it ring
| \   slide down
| h   hammer-on
| p   pull-off
| ~   vibrato
| +   harmonic
| x   Mute note
| b   Bend
| pb  Pre-bend
| br  Bend release
| pbr Pre-bend release
| brb Bend release bend

************************************
Suggest correction
Give kudos to tab author, rate the tab!
1 2 3 4 5
comments
print report bad tab
guest
You may want to rate the tab now too:
select rating
Wanna post a correction for this tab? Suggest correction