Oops, an error
Loading. Please wait.

Little Things Tab

version 4
version 4

Whole song

Interactive

486,302 views 636 this week
17 commentsread comments
1 2 3 4 5
x 245
add to favorites
launch autoscroll
font size
0
reset
how to read this tab
guitar tuner
Autoscroll
slow
fast
+/-
esc
set tempo
stop
Help us to improve Ultimate-Guitar.com Take our survey!
×
Author
Difficulty
novice

(You just pick each pattern quickly back to back 
and then pause for a beat and then repeat. Once 
you get the timing you'll be set!)

**Thanks to rubyrod7 for the bit
after the D in the chorus!!"

Send in your guitar chords song request @ www.liveloveguitar.com

Standard Tuning-EADGBe
No Capo


[Intro]

      G                                 Cadd9  
e|-------------------------------------------------------------|
B|------3-----3-------3-----3-----------3-----3------3-----3---|
G|------0-----0-------0-----0-----------0-----0------0-----0---|
D|----0-----0-------0-----0-----------2-----2-------2----2-----|
A|-----------------------------0h2--3-----3-------3----3-------|
E|--3-----3-------3-----3--------------------------------------|


         Em7             D/F#          Cadd9     D        G     
e|----------------------------------------------2-----------------|
B|--------3-----3-------3-----3--------3--------3-------3-----3---|
G|--------0-----0-------2-----2--------0------2---------0-----0---| x2
D|------2-----2-------0-----0--------2------0---------0-----0-----|
A|---------------------------------3------------------------------|
E|----0-----0-------2-----2-------------------------3-----3-------|


[Verses 1 & 2]

      G                                 Cadd9  
e|-------------------------------------------------------------|
B|------3-----3-------3-----3-----------3-----3------3-----3---|
G|------0-----0-------0-----0-----------0-----0------0-----0---|
D|----0-----0-------0-----0-----------2-----2-------2----2-----|
A|-----------------------------0h2--3-----3-------3----3-------|
E|--3-----3-------3-----3--------------------------------------|


         Em7             D/F#          Cadd9     D        G     
e|----------------------------------------------2-----------------|
B|--------3-----3-------3-----3--------3--------3-------3-----3---|
G|--------0-----0-------2-----2--------0------2---------0-----0---| x2
D|------2-----2-------0-----0--------2------0---------0-----0-----|
A|---------------------------------3------------------------------|
E|----0-----0-------2-----2-------------------------3-----3-------|


[Verse 1]

     G                                           
Your hand fits in mine like it's made just for me
    Cadd9 
But bear this in mind it was meant to be
        Em7                          D/F#
And I'm joining up the dots with the freckles on your cheeks
       Cadd9     D        G
And it all makes sense to me


[Verse 2]

  G                                                 
I know you've never loved the crinkles by your eyes 
         Cadd9       
When you smile you've never loved your stomach or your thighs 
    Em7                         D/F#
The dimples in your back at the bottom of your spine 
         Cadd9     D      G
But I'll love them endlessly 


[Chorus]

    Am7              C            Em             D       
e|--------------------------------------------------2--3--2-----|
B|-----1-----1-------1-----1--------0-----0---------3--3--3-3---|
G|-----0-----0-------0-----0--------0-----0-------2-------------|
D|---2-----2-------2-----2--------2-----2-------0---------------| x2
A|-0-----0-------3-----3----------------------------------------|
E|------------------------------0-----0-------------------------|

Am7                       C            Em        D
 I won't let these little things slip, out of my mouth
         Am7      C            Em            D
But if I do, it's you, Oh it's you, They add up to 

     C               C        G              G
e|-------------------0-------------------------------|
B|-------1-----1-----1-----------3-----3-----3-------|
G|-------0-----0-----0-----------0-----0-----0-------|
D|-----2-----2-------2---------0-----0-------0-------|
A|---3-----3---------3-----------------------2-------|
E|---------------------------3-----3---------3-------|

       C                  C -once          G     G-once
I'm in love with you, And all these little things 


[Verses 3 & 4]

      G                                Cadd9  
e|----------------------------------------------------------------|
B|------3-----3-------3-----3--------------3-----3------3-----3---|
G|------0-----0-------0-----0--------------0-----0------0-----0---|
D|----0-----0-------0-----0--------------2-----2------2-----2-----|
A|-----------------------------0h2-----3-----3-------3----3-------|
E|--3-----3-------3-----3-----------------------------------------|


         Em7            D/F#           Cadd9     D        G      
e|----------------------------------------------2-----------------|
B|--------3-----3-------3-----3--------1--------3-------3-----3---|
G|--------0-----0-------2-----2--------0------2---------0-----0---| x2
D|------2-----2-------0-----0--------2------0---------0-----0-----|
A|---------------------------------3------------------------------|
E|----0-----0-------2-----2-------------------------3-----3-------|


[Verse 3]

G                                        
You can't go to bed, Without a cup of tea,
    Cadd9 
And maybe that's the reason that you talk, in your sleep 
    Em7                             D/F#
And all those conversations are the secrets that I keep 
          Cadd9    D        G
Though it makes no sense to me 


[Verse 4]

  G  
I know you've never loved the sound of your voice 
   Cadd9   
on tape you never want to know how much you weigh 
Em7                         D/F#
You still have to squeeze into your jeans 
     Cadd9     D       G
But, you're perfect to me 


[Chorus]

    Am7              C            Em             D       
e|--------------------------------------------------2--3--2-----|
B|-----1-----1-------1-----1--------0-----0---------3--3--3-3---|
G|-----0-----0-------0-----0--------0-----0-------2-------------|
D|---2-----2-------2-----2--------2-----2-------0---------------| x2
A|-0-----0-------3-----3----------------------------------------|
E|------------------------------0-----0-------------------------|

Am7                       C            Em        D
 I won't let these little things slip, out of my mouth
         Am7      C            Em            D
But if I do, it's you, Oh it's you, They add up to 

     C               C       
e|-----------------------------------|
B|-------1-----1-------1-----1-------|
G|-------0-----0-------0-----0-------|
D|-----2-----2-------2-----2---------|
A|---3-----3-------3-----3-----------|
E|-----------------------------------|

       C                  C                      Am7
I'm in love with you, And all these little things



[Bridge]

    Am7              C             G              D/F#       
e|--------------------------------------------------------------|
B|-----1-----1-------1-----1--------3-----3---------3-----3-----|
G|-----0-----0-------0-----0--------0-----0---------2-----2-----|
D|---2-----2-------2-----2--------0-----0---------0-----0-------| x4
A|-0-----0-------3-----3----------------------------------------|
E|------------------------------3-----3---------2-----2---------|


[Bridge]

Am7           C                  G                 D/F#
 You'll never love yourself half as much as I love you 
Am7           C                    G                      D/F#   
You'll never treat yourself right, darlin' But I want you to,
Am7          C         G        D/F#  Am7          C
If I let you know, I'm here for you,  Maybe you'll love yourself, 
     G      D/F#
Like I love you Oh 

*Single strums

Am7*                            C*           Em*       D*
 And I've just let these little things slip, out of my mouth
           Am7*         C*        Em*           D-soft strummimg
Cause it's you, Oh it's you, it's you, They add up to 
           C                                         Am7-back to picking
And I'm in love with you, And all these little things 


[Chorus]

    Am7              C            Em             D       
e|--------------------------------------------------2--3--2-----|
B|-----1-----1-------1-----1--------0-----0---------3--3--3-3---|
G|-----0-----0-------0-----0--------0-----0-------2-------------|
D|---2-----2-------2-----2--------2-----2-------0---------------| x2
A|-0-----0-------3-----3----------------------------------------|
E|------------------------------0-----0-------------------------|

Am7                       C            Em        D
 I won't let these little things slip, out of my mouth
            Am7        C         Em            D
But if it's true, it's you, it's you, they add up to 


     C               C        
e|-------------------0-------|
B|-------1-----1-----1-------|
G|-------0-----0-----0-------|
D|-----2-----2-------2-------|
A|---3-----3---------3-------|
E|---------------------------|

       C                                        
I'm in love with you, And all your little things 



Have fun and RATE:)
Send in your guitar chords song request @ www.liveloveguitar.com
Suggest correction
comments
print report bad tab
17 comments total. Showing first comments.
+1 reply
rubyrod7 331 Feb 07, 2013 03:02 PM

great tab, thanks for posting. Just a thought, i think the C should be played with the B string held on the third fret and not the first. I think that would be called a Cadd9. Also, i believe that little "lick", i guess you could call it, that they do during the chorus on the D chord goes something like this:

e|------2---3---2---|
B|------3---3---3--3|
G|----2-----=---===-|
D|--0-----=---------|
A|------------------|
E|------------------|

0 reply
cristy♥twilight [tm] 5,875 Feb 08, 2013 07:24 PM

Thank you so much for that thing they do on the "D" in the chorus!! I could not figure that out, and have looked at tons of youtube videos trying to figure out what it was!! I knew it was missing it!! THANKS FOR LETTING ME KNOW :)

0 reply
Ana Lisa Meloyo 31 Feb 18, 2013 09:42 PM

GREAT SONG!

only to fall in love Directioners Girls >:D

guest
You may want to rate the tab now too:
select rating
Wanna post a correction for this tab? Suggest correction