Oops, an error
Loading. Please wait.

Live While Were Young Tab

version 1
version 1

Solo

Whole song

Interactive

8,517 views 24 this week
no commentswrite comment
1 2 3 4 5
accurate
x 2
add to favorites
launch autoscroll
font size
0
reset
how to read this tab
guitar tuner
Tab Pro tools
  • play this tab
  • loop segment
  • change instrument
  • show fretboard
  • metronome
Autoscroll
slow
fast
+/-
esc
set tempo
stop
Contributor
Difficulty
novice
One Direction - Live While We're Young


Ok so this is basically just a tab for the bridge.
Just strum the chord first and then pick the notes that are written. I hope you enjoy 
playing it!
   D           A
e|----------------------------------|
B|-7--7-7------5--5-5---------------|
G|-7------7-7--6------6-6-----------|
D|-7-----------7--------------------|
A|----------------------------------|
E|----------------------------------|

   Bm          G
e|-2-----------7--------------------|
B|-3--3-3------8--------------------|
G|-4------4-4--7--------------------|
D|-4--------------------------------|
A|----------------------------------|
E|----------------------------------|

Play this 3 times while Zayn is singing "and girl, you and I, we're 'bout to make some 
memories tonight..." except on the last bit instead of playing G as


e|-7---|
B|-8---|
G|-7---|
D|-----|
A|-----|
E|-----|

play it normally like

e|-3---|
B|-3---|
G|-0---|
D|-0---|
A|-2---|
E|-3---|
comments
We did not receive enough feedback on this tab! Please rate:
print report bad tab
1 2 3 4 5
I want to post or [tab]
guest
You may want to rate the tab now too:
select rating
Please do not post tabs as comments. Select "correction" instead!