Oops, an error
Loading. Please wait.

Live While Were Young Tab

version 2
version 2

Whole song

Interactive

3,661 views 3 this week
no commentswrite comment
1 2 3 4 5
3 more votes to show rating
add to favorites
launch autoscroll
font size
0
reset
how to read this tab
guitar tuner
Autoscroll
slow
fast
+/-
esc
set tempo
stop
Help us to improve Ultimate-Guitar.com Take our survey!
×
Author
                  Live While Were Young - One Direction  

It is hard to get the correct sound with only one guitar part and 
no bass so Ive entered two here. Guitar One fills better when played alone.
Intro Guitar One:
e|-------------------------------------------------------------------------------------|
B|-----3---3---3---3---3---3---3--x--x--x---3---3---3---3---3---3---3---x--x--x--------|
G|-----0---0---0---0---0---0---2--x--x--x---0---0---0---0---0---0---2---x--x--x--------|
D|-----0---2---4---0---0---4---0--x--x--x---0---2---4---0---0---4---0---x--x--x--------|
A|-------------------------------------------------------------------------------------|
E|-------------------------------------------------------------------------------------|


Rhythm Guitar One
e|-------------------------------------------------------------------------------------|
B|-----3---3---3---3---3---3---3--------3---3---3---3---3------------------------------|
G|-----0---0---0---0---0---0---2--------0---0---0---0---2------------------------------|
D|-----0---2---4---0---0---4---0--------4---0---0---4---0------------------------------|
A|-------------------------------------------------------------------------------------|
E|-------------------------------------------------------------------------------------|



e|-------------------------------------------------------------------------------------|
B|-----3---3---3---3---3---3-----------------------------------------------------------|
G|-----0---0---0---0---0---0---2---2---------------------------------------------------|
D|-----0---2---4---0---0---4---2---2---------------------------------------------------|
A|-----------------------------0---0---------------------------------------------------|
E|-------------------------------------------------------------------------------------|

Intro Guitar Two:
e|--------------/-7---7---7---5---x---x---x---------------/-7---7---7---5---x---x---x--|
B|----7---5---7-/-8---8---8---7---x---x---x-----7---5---7-/-8---8---8---7---x---x---x--|
G|----7---7---7-/-7---7---7---7---x---x---x-----7---7---7-/-7---7---7---7---x---x---x--|
D|----0---0---0---0---0---0---0---x---x---x-----0---0---0---0---0---0---0---x---x---x--|
A|-------------------------------------------------------------------------------------|
E|-------------------------------------------------------------------------------------|


Rhythm Guitar Two:
e|--------------/-7---7---7---5-----------/-7---7---7---5------------------------------|
B|----7---5---7-/-8---8---8---7---------7-/-8---8---8---7------------------------------|
G|----7---7---7-/-7---7---7---7---------7-/-7---7---7---7------------------------------|
D|----0---0---0---0---0---0---0---------0---0---0---0---0------------------------------|
A|-------------------------------------------------------------------------------------|
E|-------------------------------------------------------------------------------------|



e|--------------/-7---7---7---9---9----------------------------------------------------|
B|----7---5---7-/-8---8---8--10--10----------------------------------------------------|
G|----7---7---7-/-7---7---7---9---9----------------------------------------------------|
D|----0---0---0---0---0---0------------------------------------------------------------|
A|-------------------------------------------------------------------------------------|
E|-------------------------------------------------------------------------------------|


D               G         D
  Hey girl i'm waiting on ya  (simple chords or use lines 2 & 3 above as the progression)
     G          D
I'm waiting on ya
            G       D         A
Come on and let me sneak you out

             G    D
And have a celebration
   G     D
A celebration
          G      D        A
The music up the windows down

D A                D            A
 Yeah, We're just doing what we do  ( Advanced Chording: Bm G D A)
        D                   A
just pretending that we're cool    (Bm G A)
         A
And we know it too
D   A         D           A
  Yeah keep doing what we do       (Bm G D A)
        D                  A
Just pretending that we're cool    (Bm G A)
      A
So tonight let's go

CHORUS:
D                          G   A   D
Crazy crazy crazy till we see the sun      (D AG AG AD)
D                                G    A
I know we only met but let's pretend it's  (D AG AG AD) 
D
love
       D                        G   A   D  (D AG AG ABm)
We'll never ever ever stop for anyone
D 
Tonight let's get some                      (DF#mGA GAD)
G    A                 D
 And live while we're young



D           G    A
Ohohoohoho oh oh oh   (DF#mGAG/A)
D           D A  D
Ohohoohoho oh oh oh   (DF#mGA GAD)
D           G    A
Ohohoohoho oh oh oh   (DF#mGAG/A)
D 
Tonight let's get some (DF#mGA)
G    A                 D
And live while we're young

     D         G         D
Hey girl it's now or never
      G      D
It's now or never
             G               A
Don't over think just let it go
           G       D   G       D
And if we get together get together
                G                  A
don't let the pictures leave your phone      

D A                D            A
 Yeah, We're just doing what we do
        D                   A            
just pretending that we're cool
        A
So tonight let's go

To CHORUS:

Rhythm for Bridge:
e|-----10---x---x---10---14--14--10--10---9---x---x---9--12--12---9---9----------------|
B|-----10---x---x---10---10--10--10--10--10---x---x--10--10--10--10--10----------------|
G|-----11---x---x---11---11--11--11--11---9---x---x---9---9---9---9---9----------------|
D|-----12-----------12---12--12--12--12--11----------11--11--11--11--11----------------|
A|-------------------------------------------------------------------------------------|
E|-------------------------------------------------------------------------------------|


e|-----7---x---x---7--10--10---7---7---7---x---x---7---7---7---7-----------------------|
B|-----7---x---x---7---7---7---7---7---8---x---x---7---7---7---7-----------------------|
G|-----7---x---x---7---7---7---7---7---7---x---x---7---7---7---7-----------------------|
D|-----9---x---x---9---9---9---9---9---9---x---x---9---9---9---9-----------------------|
A|-------------------------------------------------------------------------------------|
E|-------------------------------------------------------------------------------------|

Bridge:
D          (or use rhythm above)
And girl
A     
You and I
Bm                        G         D
We're about to make some memories tonight
ohoho
A                           Bm
  I wanna live while we're young
A                           D
We wanna live while we're young

G     A
let's go...

To CHORUS:

repeat
G    A                D
And live while we're young
G    A                D
And live while we're young
Suggest correction
Give kudos to tab author, rate the tab!
1 2 3 4 5
comments
print report bad tab
guest
You may want to rate the tab now too:
select rating
Wanna post a correction for this tab? Suggest correction