Oops, an error
Loading. Please wait.

Midnight Memories Tab

version 3
version 3

Whole song

Interactive

17,023 views 12 this week
1 commentread comment
1 2 3 4 5
x 11
add to favorites
launch autoscroll
font size
0
reset
how to read this tab
guitar tuner
Autoscroll
slow
fast
+/-
esc
set tempo
stop
Help us to improve Ultimate-Guitar.com Take our survey!
×
Author
Difficulty
novice
Standard tuning

* =palm mute
/ =slide
h =hammer





  Verse 1
e |-x-x-x-x-|------x-x------------------------------x-x-------------------------|
B |-x-x-x-x-|------x-x------------------------------x-x-------------------------|
G |-x-x-x-x-|------x-x------------------------------x-x-------------------------|
D |-x-x-x-x-|-2-2--x-x-------------------------2-2--x-x-------------------------|
A |-x-x-x-x-|-2-2-------------2-4-5-4-2-0------2-2-------------2-4-5-4-2-0------|
E |-x-x-x-x-|-0-0-----0-2-4-5-------------4-2--0-0-----0-2-4-5-------------4-2--|

continue
e |------x-x------------------------------x-x----------------------------------|
B |------x-x------------------------------x-x----------------------------------|
G |------x-x------------------------------x-x----------------------------------|
D |-2-2--x-x-------------------------2-2--x-x--77777777-10101010-12121212-1414-|
A |-2-2-------------2-4-5-4-2-0------2-2-------55555555-88888888-10101010-1212-|
E |-0-0-----0-2-4-5-------------4-2--0-0---------------------------------------|
                                               *******************************


Chorus
e |--------------------------------------------|
B |--------------------------------------------|
G |-----2-2-4-4------------------------2-2-4-4-|
D |-2-2-2-2-4-4-2h4-6p4-/2-----2-2-----2-2-4-4-|   X2
A |-2-2-0-0-2-2------------4-2-2-2-----0-0-2-2-|
E |-0-0------------------------0-0-2-4---------|


  Guitar 2 (in the end of the chorus)
e |--12--12--|
B |--14b-14--|b
G |----------|
D |----------|
A |----------|
E |----------|



Verse 2 guitar 1 plays same as in verse 1,
  guitar 2 plays this:

e |-------------------------------------------------------------------------|
B |---------------------------------------------------------10--12--13--12--|
G |----------4-6-7-6-4-------------------4-6-7-6-4----------12b-14b-15b-14b-|
D |-2-4h5-/7-----------7-6-4----2-4h5-/7-----------7-6-4--------------------|
A |-------------------------------------------------------------------------|
E |-------------------------------------------------------------------------|


Chorus


Bridge

e |--------------------------------------------------------|
B |--------------------------------------------------------|
G |--6666-----------4444--6666-----------44-6-8-9-11-13-16-|
D |--6666-7777-2222-4444--6666-7777-2222-44-6-8-9-11-13-16-|
A |--4444-7777-2222-2222--4444-7777-2222-22-4-6-7-9--11-14-|
E |-------5555-0000------------5555-0000-------------------|


Chorus
Suggest correction
comments
print report bad tab
1 comment total.
0 reply
beckettinga 10 Dec 31, 2013 12:09 AM, edited at 12:13 am

I'm pretty sure its actually

----------------------------------------------
----------------------------------------------
----------------------------------------------
-----------------------------------------------
----------------2-4-5----5-4-2------------
----0-2-4-5-----------------------5-4-2-0

guest
You may want to rate the tab now too:
select rating
Wanna post a correction for this tab? Suggest correction