Oops, an error
Loading. Please wait.

More Than This Tab

version 2
version 2

Whole song

Interactive

136,700 views 108 this week
no commentswrite comment
1 2 3 4 5
x 38
add to favorites
launch autoscroll
font size
0
reset
how to read this tab
guitar tuner
Autoscroll
slow
fast
+/-
esc
set tempo
stop
Help us to improve Ultimate-Guitar.com Take our survey!
×
Difficulty
intermediate
[Intro and Verses] (2nd verse you can just strum if you want. Both parts are there.)
     C                        Am                 G                         
e|---------------------------------------------------------------|
B|-------1---------1---------1---------1---------3-----------3---|
G|---------0---------0---------2---------2---------0-----------0-|
D|-----2-----2---2-----2---2-----2---2-----2---------0-----------|
A|---3---------3---------0---------0-----------2-------0---2-----|
E|-------------------------------------------3-----------3-------|
   Em           F     G                                                 x3              
e|---------------------------------------------------------------|
B|-------0---------1-----3---------------------------------------|
G|---------0-------2-----4---------------------------------------|
D|-0---2-----2---3-----5-----------------------------------------|
A|---------------------------------------------------------------|
E|---0---------1-----3-------------------------------------------| 


[Pre Chorus] (first time):
        
     Am                G                 F                         
e|---------------------------------------------------------------|
B|-------1---------1-------3---------3-------1---------1---------|
G|---------2---------2-------0---------0-------2---------2-------|
D|-----2-----2---2-------------0-----------3-----3---3-----3---3-|
A|---0---------0---------2---------2-----------------------------|
E|---------------------3---------3-------1---------1---------1---|
         G 
e|---------------------------------------------------------------|
B|-1---------3---------------------------------------------------|
G|---2---------4-------------------------------------------------|
D|-----3---5-----------------------------------------------------|
A|---------------------------------------------------------------|
E|-------3-------------------------------------------------------|


[Chorus]

        C       Am      G               Dm      Am      G
e|------0-------0------3---------------1-------0------3----------|
B|------1-------1------3---------------3-------1------3----------|
G|------0-------2------0---------------2-------2------0----------|
D|------2-------2------0---------------0-------2------0----------|
A|------3-------0------2---------------0-------0------2----------|
E|------0-------0------3---------------1-------0------3----------| x2


[Pre Chorus] (2nd time):

     Am                G                 F                         
e|---------------------------------------------------------------|
B|-------1---------1-------3---------3-------1---------1---------|
G|---------2---------2-------0---------0-------2---------2-------|
D|-----2-----2---2-------------0-----------3-----3---3-----3-----|
A|---0---------0---------2---------2-----------------------------|
E|---------------------3---------3-------1---------1---------1---|


[Bridge]

     Dm   Bb   F    C    Dm   Bb   F    C     (4 beats each)
e|---5----6----1----0----5----6----1----0------------------------|
B|---6----6----1----1----6----6----1----1------------------------|
G|---7----7----2----0----7----7----2----0------------------------|
D|---7----8----3----2----7----8----3----2------------------------|
A|---5----8----3----3----5----8----3----3------------------------|
E|---5----6----1----0----5----6----1----0------------------------|


[Post Bridge]

    C         Am        G                 Dm        Am        G        
e|--------------------------------------------1---------------3--|
B|------1---------1---------3---------3---------3-------1-----3--|
G|--------0---------2---------0---------0---2-----2-------2---0--|
D|----2-----2---2-----2---------0---------0-----------2-------0--|
A|--3---------0-----------2---------2---------------0---------2--|
E|----------------------3---------3---------------------------3--|


Order:

[Intro]
[Verse]
[Pre Chorus] (first time)
[Chorus]
[Verse 2]
[Pre Chorus] (2nd time)
[Chorus]
[Bridge]
[Post Bridge]
[Chorus]

End on C
Suggest correction
comments
print report bad tab
guest
You may want to rate the tab now too:
select rating
Wanna post a correction for this tab? Suggest correction