Oops, an error
Loading. Please wait.

Na Na Na Tab

4,925 views 3 this week
no commentswrite comment
1 2 3 4 5
1 last vote to show rating
add to favorites
launch autoscroll
font size
0
reset
how to read this tab
guitar tuner
Autoscroll
slow
fast
+/-
esc
set tempo
stop
Help us to improve Ultimate-Guitar.com Take our survey!
×
Difficulty
Capo
novice
4th fret
Na Na Na
One Direction
Capo 4

Intro
    C                                 Am
E|--x--x--x--x--x----x--x--x--x--x----x--x--x--x--x----x--x--x--x--x----|
B|--x--1--1--x--1----x--1--1--x--1----x--1--1--x--1----x--1--1--x--1----|
G|--x--x--x--x--x----x--x--x--x--x----x--2--2--x--2----x--2--2--x--2----|
D|--x--2--2--x--2----x--2--2--x--2----x--2--2--x--2----x--2--2--x--2----|
A|--x--3--3--x--3----x--3--3--x--3----x--x--x--x--x----x--x--x--x--x----|
E|--x--x--x--x--x----x--x--x--x--x----x--x--x--x--x----x--x--x--x--x----|

Verse 1
    C                                 Am
E|--x--x--x--x--x----x--x--x--x--x----x--x--x--x--x----x--x--x--x--x----|
B|--x--1--1--x--1----x--1--1--x--1----x--1--1--x--1----x--1--1--x--1----|
G|--x--x--x--x--x----x--x--x--x--x----x--2--2--x--2----x--2--2--x--2----|
D|--x--2--2--x--2----x--2--2--x--2----x--2--2--x--2----x--2--2--x--2----|  x2
A|--x--3--3--x--3----x--3--3--x--3----x--x--x--x--x----x--x--x--x--x----|
E|--x--x--x--x--x----x--x--x--x--x----x--x--x--x--x----x--x--x--x--x----|
We've got a bit of love/hate, you take me to the edge then you hit the brakes
I-I-I say it's over one day, but then I'm calling back begging you to stay

    F                                 G
E|--x--1--1--x--1----x--1--1--x--1----x--3--3--x--3----x--3--3--x--3----|
B|--x--1--1--x--1----x--1--1--x--1----x--x--x--x--x----x--x--x--x--x----|
G|--x--2--2--x--2----x--2--2--x--2----x--x--x--x--x----x--x--x--x--x----|
D|--x--3--3--x--3----x--3--3--x--3----x--x--x--x--x----x--x--x--x--x----|
A|--x--x--x--x--x----x--x--x--x--x----x--2--2--x--2----x--2--2--x--2----|
E|--x--x--x--x--x----x--x--x--x--x----x--3--3--x--3----x--3--3--x--3----|
We make up then we break up all the time

    C                                 Am
E|--x--x--x--x--x----x--x--x--x--x----x--x--x--x--x----x--x--x--x--x----|
B|--x--1--1--x--1----x--1--1--x--1----x--1--1--x--1----x--1--1--x--1----|
G|--x--x--x--x--x----x--x--x--x--x----x--2--2--x--2----x--2--2--x--2----|
D|--x--2--2--x--2----x--2--2--x--2----x--2--2--x--2----x--2--2--x--2----|  x2
A|--x--3--3--x--3----x--3--3--x--3----x--x--x--x--x----x--x--x--x--x----|
E|--x--x--x--x--x----x--x--x--x--x----x--x--x--x--x----x--x--x--x--x----|
I'll say that I hate her song, then you'll go request it the whole nightlong
Some people say it’s so wrong but even when we fight, it’ll turn me on

    F                                 G
E|--x--1--1--x--1----x--1--1--x--1----x--3--3--x--3----x--3--3--x--3----|
B|--x--1--1--x--1----x--1--1--x--1----x--x--x--x--x----x--x--x--x--x----|
G|--x--2--2--x--2----x--2--2--x--2----x--x--x--x--x----x--x--x--x--x----|
D|--x--3--3--x--3----x--3--3--x--3----x--x--x--x--x----x--x--x--x--x----|
A|--x--x--x--x--x----x--x--x--x--x----x--2--2--x--2----x--2--2--x--2----|
E|--x--x--x--x--x----x--x--x--x--x----x--3--3--x--3----x--3--3--x--3----|
We make up then we break up all the time

Chorus (Downward Strums)
           C
We're like na na na
                Am 
Then we're like yeah yeah yeah
            C
Always like na na na
                Am
Then we're like yeah yeah yeah
      F
No we can't make up our minds
              G
Cause when we think we've got it right
      C
We go na na na na (na na na)
Am
Na na na (na na na)

Verse 2
    C                                 Am
E|--x--x--x--x--x----x--x--x--x--x----x--x--x--x--x----x--x--x--x--x----|
B|--x--1--1--x--1----x--1--1--x--1----x--1--1--x--1----x--1--1--x--1----|
G|--x--x--x--x--x----x--x--x--x--x----x--2--2--x--2----x--2--2--x--2----|
D|--x--2--2--x--2----x--2--2--x--2----x--2--2--x--2----x--2--2--x--2----|  x2
A|--x--3--3--x--3----x--3--3--x--3----x--x--x--x--x----x--x--x--x--x----|
E|--x--x--x--x--x----x--x--x--x--x----x--x--x--x--x----x--x--x--x--x----|
You wanna party too late but when I do the same all you do is complain
You know that it drives me insane but when I get with you girl you make it okay

    F                                 G
E|--x--1--1--x--1----x--1--1--x--1----x--3--3--x--3----x--3--3--x--3----|
B|--x--1--1--x--1----x--1--1--x--1----x--x--x--x--x----x--x--x--x--x----|
G|--x--2--2--x--2----x--2--2--x--2----x--x--x--x--x----x--x--x--x--x----|
D|--x--3--3--x--3----x--3--3--x--3----x--x--x--x--x----x--x--x--x--x----|
A|--x--x--x--x--x----x--x--x--x--x----x--2--2--x--2----x--2--2--x--2----|
E|--x--x--x--x--x----x--x--x--x--x----x--3--3--x--3----x--3--3--x--3----|
We make up then we break up all the time

Chorus (Downward Strums)
           C
We're like na na na
                Am
Then we're like yeah yeah yeah
            C
Always like na na na
                Am
Then we're like yeah yeah yeah
      F
No we can't make up our minds
              G     
Cause when we think we've got it right
      C
We go na na na na (na na na)
Am
Na na na (na na na)

Bridge
-Play the Chorus-

Chorus (Downward Strums)
           C
We're like na na na
                Am
Then we're like yeah yeah yeah
            C
Always like na na na
                Am
Then we're like yeah yeah yeah
           C
We're like na na na
                Am
Then we're like yeah yeah yeah
            C
Always like na na na
                Am
Then we're like yeah yeah yeah
      F
No we can't make up our minds
              G
Cause when we think we've got it right
      C
We go na na na na


Suggest correction
Give kudos to tab author, rate the tab!
1 2 3 4 5
comments
print report bad tab
guest
You may want to rate the tab now too:
select rating
Wanna post a correction for this tab? Suggest correction