Oops, an error
Loading. Please wait.
We have Chord Pro version of Night Changes.
It's the closest thing you can get to the original song and it has interactive parts. Check out the tab »
×
2,491 views 30 this week
no commentswrite comment
1 2 3 4 5
x 3
add to favorites
×
Save as Personal and add changes to this tab that will be seen only by you. Learn more ›
×
You can save this tab as Personal to edit and correct it or add notes. All changes will be seen only by you. Learn more »
launch autoscroll
font size
0
reset
how to read this tab
guitar tuner
edit
Autoscroll
slow
fast
+/-
esc
set tempo
stop
-------------------------------------------------------------------------------
                             SONG NAME - Band Name
-------------------------------------------------------------------------------
Tabbed by: Jim Keane
E-mail: jkeane22@yahoo.com

The rhythm guitar is played in the key of A tuned down 1/2 step, rather than 
G capo 1 as shown in many tabs.  Key of A allows for some distinctive voicings, 
as noted in the chord charts below. 

Tuning: standard tuning, tune down 1/2 step

Synth part plays intro and in the background over every chord in each verse, 
and can be easily played on guitar and looped over the verses. In the last verse 
after the key change, play the same pattern up two frets.

e|--12------12------12------12-----------------------------------------------|
B|------12------12------12------12-------------------------------------------|
G|----14--14--14--14--14--14--14--14-----------------------------------------|
D|---------------------------------------------------------------------------|
A|---------------------------------------------------------------------------|
E|---------------------------------------------------------------------------|


Chords, first two verses
       A     F#m7*    C#m7    Esus      D*    E    A/G#    A/E
e|-----0------0--------0-------0--------2-----0-----0-------0----------------|
B|-----2------2--------0-------0--------3-----0-----2-------2----------------|
G|-----2------2--------1-------2--------2-----1-----2-------2----------------|
D|-----2------2--------2-------2--------0-----2-----2-------2----------------|
A|-----0------0--------4-------2--------0-----2-----0-------0----------------|
E|-----x------2--------x-------0--------2-----0-----4-------0----------------|

*Use thumb to fret the bass note on the F#m7 and D chords.


Chords, final verse
       B**   G#m7***  D#m7    F#sus     E     F#    B/A#**  B/F#**
e|-----x------x--------x-------2--------0-----2-----x-------x----------------|
B|-----4------4--------7-------2--------0-----2-----4-------4----------------|
G|-----4------4--------6-------4--------1-----3-----4-------4----------------|
D|-----4------4--------8-------4--------2-----4-----4-------4----------------|
A|-----2------x--------6-------4--------2-----4-----1-------2----------------|
E|-----x------4--------x-------2--------0-----2-----x-------2----------------|

** Fingering for B chords: for the B and B/F# chords, barre with first and third finger; 
for the B/A# chord, barre with first and fourth finger.
*** Fingering for the G#m7 chord: fret sixth string with second finger and 
fourth-third-second strings with the third finger.  Second finger mutes fifth string.



[Verse 1: (Zayn)]
A                  A   
Going out tonight, changes into something red
F#m7
Her mother doesn't like that kind of dress
C#m7                                       Esus
Everything she never had, she's showing off

[Verse 2: (Liam)]
Driving too fast, moon is breaking through her hair
She's heading for something that she won't forget
Having no regrets is all that she really wants

[Chorus: (Harry/All)]
D                   E
We're only getting older baby
D                        E
And I've been thinking about it lately
D              E
Does it ever drive you crazy
A         A/G#     F#m7    A/E
Just how fast the night changes
D                      E
Everything that you've ever dreamed of
D             E
Disappearing when you wake up
D                      E
But there's nothing to be afraid of
A     A/G#     F#m7     A/E
Even when the night changes
D               E              A
It will never change me and you

[Verse 3: (Louis)]
Chasing there tonight, doubts are running 'round her head
He's waiting, hides behind a cigarette
Heart is beating loud and she doesn't want it to stop

[Verse 4: (Niall)]
Moving too fast, moon is lighting up her skin
She's falling, doesn't even know it yet
Having no regrets is all that she really wants

[Chorus: (Harry/All)]
We're only getting older baby
And I've been thinking about it lately
Does it ever drive you crazy
Just how fast the night changes
Everything that you've ever dreamed of
Disappearing when you wake up
But there's nothing to be afraid of
Even when the night changes
D              E             B (8x) G#m7 (8x) E (4x) F# (4x)
It will never change me and you

[Bridge: (Zayn)]
B         
Going out tonight, changes into something red
G#m7
Her mother doesn't like that kind of dress
D#m7                                              F#sus
Reminds her of the missing piece of innocence she lost

[Chorus: (Harry/All)]
E                   F#
We're only getting older baby
E                       F# 
And I've been thinking about it lately
E             F#
Does it ever drive you crazy
B         B/A#    G#m7    B/F# 
Just how fast the night changes
E                      F#
Everything that you've ever dreamed of
E             F#
Disappearing when you wake up
E                      F#
But there's nothing to be afraid of
B     B/A#     G#m7   B/F#
Even when the night changes

[Outro: (Harry)]
E              F#
It will never change, baby
E              F#
It will never change, baby
E              F#
It will never change, me and you
Suggest correction
Creating personal tab
Creating personal tab
You can edit any tab online and save it as your Personal.

You can edit, replace or remove any tab part or add personal notes – all changes will be seen only by you.

Personal tabs can be accessed anytime from any device, even offline.
Learn more »
Give kudos to tab author, rate the tab!
1 2 3 4 5
comments
print report bad tab
guest
You may want to rate the tab now too:
select rating
Wanna post a correction for this tab? Suggest correction