Oops, an error
Loading. Please wait.

Story Of My Life bass

version 1
version 1

Whole song

Interactive

1,087 views 12 this week
no commentswrite comment
1 2 3 4 5
2 more votes to show rating
add to favorites
×
Save as Personal and add changes to this tab that will be seen only by you. Learn more ›
×
You can save this tab as Personal to edit and correct it or add notes. All changes will be seen only by you. Learn more »
launch autoscroll
font size
0
reset
guitar tuner
edit
Autoscroll
slow
fast
+/-
esc
set tempo
stop
Author
Difficulty
-------------------------------------------------------------------------------
                             STORY OF MY LIFE - One Direction
-------------------------------------------------------------------------------
Tabbed by: Lisa Högrelius
E-mail: lisahogrelius@gmail.com

Tuning: Standard



[NO BASS IN VERSE 1 OR PRE-CHORUS]


[CHORUS]
G|----------------|---------------|---------------|---------------|
D|----------------|---------------|---------------|---------------|
A|-6-6-6-6-6-6-6-6|6-6-6-6-6-6-6-6|---------------|---------------|
E|----------------|---------------|4-4-4-4-4-4-4-4|4-4-4-4-4-4-4-4|
   1 + 2 + 3 + 4 + 1 + 2 + 3 + 4 + 1 + 2 + 3 + 4 + 1 + 2 + 3 + 4 +
  Story of my life, I take her home, I drive all night, to keep her warm and

G|----------------|---------------|---------------|---------------|
D|----------------|---------------|---------------|---------------|  play all 8 bars twice
A|----------------|---------------|6-6-6-6-6-6-6-6|6-6-6-6-6-6-6-6|
E|-8-8-8-8-8-8-8-8|4-4-4-4-4-4-4-4|---------------|---------------|
   1 + 2 + 3 + 4 + 1 + 2 + 3 + 4 + 1 + 2 + 3 + 4 + 1 + 2 + 3 + 4 +
   time        is  fro-            zen


[NO BASS IN VERSE 2]


[PRE-CHORUS]
G|----------------|---------------|---------------|---------------|
D|----------------|---------------|---------------|---------------|
A|----------------|---------------|---------------|---------------|
E|-4-4-4-4-6-6-6-6|8-8-8-8-8-8-8-8|4-4-4-4-6-6-6-6|8-8-8-8-8-8-8-8|
   1 + 2 + 3 + 4 + 1 + 2 + 3 + 4 + 1 + 2 + 3 + 4 + 1 + 2 + 3 + 4 +
  And I'll be gone gone tonight    The fire beneath my feet is burning bright

G|----------------|---------------|---------------|---------------|
D|----------------|---------------|---------------|---------------|
A|----------------|---------------|---------------|---------------|
E|-4-4-4-4-6-6-6-6|8-8-8-8-8-8-8-8|6--------------|---------------|
   1 + 2 + 3 + 4 + 1 + 2 + 3 + 4 + 1 + 2 + 3 + 4 + 1 + 2 + 3 + 4 +
   The way that I've been holding on so tight with nothing in between


[CHORUS 2]


[BRIDGE]
And I been waiting for this time to come around
But baby running after you is like chasing the clouds
G|----------------|---------------|---------------|---------------|
D|----------------|---------------|---------------|---------------|
A|-6--------------|---------------|---------------|---------------|
E|----------------|---------------|4--------------|------------6--|
   1 + 2 + 3 + 4 + 1 + 2 + 3 + 4 + 1 + 2 + 3 + 4 + 1 + 2 + 3 + 4 +
The story of my life, I take her home, I drive all night to keep her warm and 

G|----------------|---------------|---------------|---------------|
D|----------------|---------------|---------------|---------------|
A|----------------|---------------|---------------|---------------|
E|-8--------------|---------------|4--------------|---------------|
   1 + 2 + 3 + 4 + 1 + 2 + 3 + 4 + 1 + 2 + 3 + 4 + 1 + 2 + 3 + 4 +
   time        is   fro-           zen



[CHORUS 3]
G|----------------|---------------|---------------|---------------|
D|----------------|---------------|---------------|---------------|
A|-6-6-6-6-6-6-6-6|6-6-6-6-6-6-6-6|---------------|---------------|
E|----------------|---------------|4-4-4-4-4-4-4-4|4-4-4-4-4-4-4-4|
   1 + 2 + 3 + 4 + 1 + 2 + 3 + 4 + 1 + 2 + 3 + 4 + 1 + 2 + 3 + 4 +
  Story of my life, I give her hope, I spend her love, until she's broke in-

G|----------------|---------------|---------------|---------------|
D|----------------|---------------|---------------|---------------|  play all 8 bars twice
A|----------------|---------------|6-6-6-6-6-6-6-6|6-6-6-6-6-6-6-6|
E|-8-8-8-8-8-8-8-8|4-4-4-4-4-4-4-4|---------------|---------------|
   1 + 2 + 3 + 4 + 1 + 2 + 3 + 4 + 1 + 2 + 3 + 4 + 1 + 2 + 3 + 4 +
   side                  the story of my life

G|----------------|---------------|---------------|---------------|
D|----------------|---------------|---------------|---------------|
A|-6-6-6-6-6-6-6-6|6-6-6-6-6-6-6-6|---------------|---------------|
E|----------------|---------------|4-4-4-4-4-4-4-4|4-4-4-4-4-4-4-4|
   1 + 2 + 3 + 4 + 1 + 2 + 3 + 4 + 1 + 2 + 3 + 4 + 1 + 2 + 3 + 4 +
  Story of my life,                                 the story of 

G|----------------|---------------|---------------|---------------|
D|----------------|---------------|---------------|---------------|  play all 8 bars twice
A|----------------|---------------|---------------|---------------|
E|-8-8-8-8-8-8-8-8|8-8-8-8-8-8-8-8|4-4-4-4-4-4-4-4|4-4-4-4-4-4-4-4|
   1 + 2 + 3 + 4 + 1 + 2 + 3 + 4 + 1 + 2 + 3 + 4 + 1 + 2 + 3 + 4 +
   my life                                            the story of


G|--------------|---------------|---------------|---------------|
D|--------------|---------------|---------------|---------------|
A|-4------------|---------------|---------------|---------------|
E|--------------|---------------|---------------|---------------|
 1 + 2 + 3 + 4 + 1 + 2 + 3 + 4 + 1 + 2 + 3 + 4 + 1 + 2 + 3 + 4 +
   my life

            
            
Suggest correction
Creating personal tab
Creating personal tab
You can edit any tab online and save it as your Personal.

You can edit, replace or remove any tab part or add personal notes – all changes will be seen only by you.

Personal tabs can be accessed anytime from any device, even offline.
Learn more »
Give kudos to tab author, rate the tab!
1 2 3 4 5
comments
print report bad tab
guest
You may want to rate the tab now too:
select rating
Wanna post a correction for this tab? Suggest correction