Oops, an error
Loading. Please wait.

Story Of My Life Tab

version 1
version 1
83,829 views 18 this week
4 commentsread comments
1 2 3 4 5
not so good
x 7
add to favorites
launch autoscroll
font size
0
reset
how to read this tab
guitar tuner
Tab Pro tools
  • play this tab
  • loop segment
  • change instrument
  • show fretboard
  • metronome
×
Best way to learn
"Story Of My Life"
Autoscroll
slow
fast
+/-
esc
set tempo
stop
Contributor
Capo
1st fret
!!!!!!!!!!!!!!!!!!!!!!!!!!!!!!!!!ATTENTION!!!!!!!!!!!!!!!!!!!!!!!!!!!!!!!!!!!
Hello guys!! i dunno but it sounds alike... 
capo 1 ... or maybe anything that fits
and sorry if i made this upside down i was too excited?? my baad X( hope you guys 
understand what i typed down there!! X(
!!!!!!!!!!!!!!!!!!!!!!!!!!!!!!!!!!!!!!!!!!!!!!!!!!!!!!!!!!!!!!!!!!!!!!!!!!!!!

verse 1 and 2
     Bbm
|----------------------------------------|
|-----1------------------1---------------|
|-------3---3-------3------3---3-------3-|
|---------3------3-----------3------3----|
|-------------2------------------2-------|
|----------------------------------------| 

  F         F             F
|-1-------1-1/3--------3-3/1-------1--|
|--3---3-------3----3-------3---3-----|
|-------------------------------------|
|---2------------2-----------2--------|
|-------------------------------------|
|-------------------------------------| x6

Written in these walls are the stories that I can't explain
I leave my heart open but it stays right here empty for days

She told me in the morning she don't feel the same about us in her bones
It seems to me that when I die these words will be written on my stone


Pre-chorus 
   F      F      F
|--0------1------3---------------|
|---3--3---3--3---3--3-3---------|
|----3------3------3-------------|
|---------------------2----------|
|--------------------------------|
|--------------------------------|

   A
|----------------------------------|
|----------------------------------|
|--3--3---3--3--3--3---3-----------|
|----3------3-----3----------------|
|--3---3--3-----3---3--3-----------|
|----------------------------------| 

And I'll be gone gone tonight
The ground beneath my feet is open wide
The way that I been holdin' on too tight
With nothing in between

Chorus... (chords)

    F
The story of my life I take her home
  C                                    Am
I drive all night to keep her warm and time
   F    C ...
Is frozen (the story of, the story of)
    F   
The story of my life I give her hope
  C                                Am
I spend her love until she's broke inside
    F           C
The story of my life (the story of, the story of)

verse 3
     Bbm
|----------------------------------------|
|-----1------------------1---------------|
|-------3---3-------3------3---3-------3-|
|---------3------3-----------3------3----|
|-------------2------------------2-------|
|----------------------------------------| 

  F         F             F
|-1-------1-1/3--------3-3/1-------1--|
|--3---3-------3----3-------3---3-----|
|-------------------------------------|
|---2------------2-----------2--------|
|-------------------------------------|
|-------------------------------------| x4

Written on these walls are the colors that I can't change
Leave my heart open but it stays right here in its cage


Pre-chorus 
   F      F      F
|--0------1------3---------------|
|---3--3---3--3---3--3-3---------|
|----3------3------3-------------|
|---------------------2----------|
|--------------------------------|
|--------------------------------|

   A      A     A
|----------------------------------|
|----------------------------------|
|--3--3---3--3--3--3---3-----------|
|----3------3-----3----------------|
|--3---3--3-----3---3--3-----------|
|----------------------------------| 

And I'll be gone gone tonight
The ground beneath my feet is open wide
The way that I been holdin' on too tight
With nothing in between


Chorus... (chords)

    F
The story of my life I take her home
  C                                    Am
I drive all night to keep her warm and time
   F    C ...
Is frozen (the story of, the story of)
    F   
The story of my life I give her hope
  C                                Am
I spend her love until she's broke inside
    F           C
The story of my life (the story of, the story of)


Bridge...

And I been waiting for this time to come around
But baby running after you is like chasing the clouds

(one strum "*")
(one strum starting from the top till the middle top "^" and one strum starting 
from the middle to the bottom "v")
F^*                  Fv*
The story of my life I take her home
C^*               Cv*              Am^*
I drive all night to keep her warm and time
Amv*        G
Is frozen

F                             
The story of my life I give her hope (give her hope)
C                                  Am
I spend her love until she's broke inside (until she's broke inside)
F                  C
The story of my life (the story of, the story of)
F                  C
The story of my life
Am                  G
The story of my life
 
*****************************************************************************

or change Bbm into F

|------1---1--------------|
|---------3------3--------|
|--------3-----3----------|
|------------2------------|
|-------------------------|
|-------------------------|


if durs something wrong pls tell me and if u have better suggestions pls tel me too!! XD 
comments
print report bad tab
4 comments total. Showing first comments.
+1 reply
Pealda wrote on October 28 2013, 01:44 pm

For the intro and the verse, you can play it like that (It's an easy way):

Am C
|------0-------0-------------------------|
|-------1-------1----1----1----1----1----|
|---2-------2---------0----0----0----0---|
|--2-2-----2-2------2--2-2--2-2--2-2--2--|
|-0---0---0---0----3----0----3----0------|
|----------------------------------------|

0 reply
Pealda wrote on October 28 2013, 01:44 pm

For the intro and the verse, you can play it like that (It's an easy way):

Am C
|------0-------0-------------------------|
|-------1-------1----1----1----1----1----|
|---2-------2---------0----0----0----0---|
|--2-2-----2-2------2--2-2--2-2--2-2--2--|
|-0---0---0---0----3----0----3----0------|
|----------------------------------------|

0 reply
min0r_threat wrote on March 14 2014, 02:56 am

its a sad day when this comes up before social d....

I want to post or [tab]
guest
You may want to rate the tab now too:
select rating
Please do not post tabs as comments. Select "correction" instead!